ISO-10303-21;
HEADER;
FILE_DESCRIPTION (( 'STEP AP203' ),
    '1' );
FILE_NAME ('957893.step',
    '2021-10-08T08:12:39',
    ( '' ),
    ( '' ),
    'SwSTEP 2.0',
    'SolidWorks 2019',
    '' );
FILE_SCHEMA (( 'CONFIG_CONTROL_DESIGN' ));
ENDSEC;

DATA;
#1 = VERTEX_POINT ( 'NONE', #119 ) ;
#2 = EDGE_CURVE ( 'NONE', #70, #70, #72, .T. ) ;
#3 =( NAMED_UNIT ( * ) PLANE_ANGLE_UNIT ( ) SI_UNIT ( $, .RADIAN. ) );
#4 = APPLICATION_PROTOCOL_DEFINITION ( 'international standard', 'config_control_design', 1994, #64 ) ;
#5 = COORDINATED_UNIVERSAL_TIME_OFFSET ( 1, 0, .AHEAD. ) ;
#6 = CONICAL_SURFACE ( 'NONE', #39, 0.5799999999999989608, 1.047197551196592746 ) ;
#7 =( GEOMETRIC_REPRESENTATION_CONTEXT ( 3 ) GLOBAL_UNCERTAINTY_ASSIGNED_CONTEXT ( ( #114 ) ) GLOBAL_UNIT_ASSIGNED_CONTEXT ( ( #95, #3, #175 ) ) REPRESENTATION_CONTEXT ( 'NONE', 'WORKASPACE' ) );
#8 = CARTESIAN_POINT ( 'NONE',  ( 1.169168460693961437E-15, -4.100890923069679818E-17, 0.3348631561299861836 ) ) ;
#9 = ORIENTED_EDGE ( 'NONE', *, *, #10, .T. ) ;
#10 = EDGE_CURVE ( 'NONE', #136, #136, #208, .T. ) ;
#11 = CIRCLE ( 'NONE', #167, 0.5800000000000000711 ) ;
#12 = PRODUCT_DEFINITION_FORMATION_WITH_SPECIFIED_SOURCE ( 'ANY', '', #148, .NOT_KNOWN. ) ;
#13 = EDGE_LOOP ( 'NONE', ( #217 ) ) ;
#14 = DIRECTION ( 'NONE',  ( -3.491481338843133355E-15, 1.224646799147353207E-16, -1.000000000000000000 ) ) ;
#15 = CC_DESIGN_PERSON_AND_ORGANIZATION_ASSIGNMENT ( #123, #191, ( #92 ) ) ;
#16 = DIRECTION ( 'NONE',  ( 4.275831445896958607E-31, 1.000000000000000000, 1.224646799147353207E-16 ) ) ;
#17 = APPLICATION_CONTEXT ( 'configuration controlled 3d designs of mechanical parts and assemblies' ) ;
#18 = CARTESIAN_POINT ( 'NONE',  ( 3.491481338843133355E-14, 4.349303369719370231E-33, 10.00000000000000000 ) ) ;
#19 = DIRECTION ( 'NONE',  ( 4.275831445896959482E-31, 1.000000000000000000, 1.224646799147353207E-16 ) ) ;
#20 = APPROVAL ( #193, 'UNSPECIFIED' ) ;
#21 = CARTESIAN_POINT ( 'NONE',  ( 1.047444401652940007E-13, -3.673940397442059178E-15, 30.00000000000000000 ) ) ;
#22 = PERSON_AND_ORGANIZATION ( #164, #112 ) ;
#23 = EDGE_CURVE ( 'NONE', #1, #1, #195, .T. ) ;
#24 = CLOSED_SHELL ( 'NONE', ( #154, #214, #206, #81, #108 ) ) ;
#25 = AXIS2_PLACEMENT_3D ( 'NONE', #37, #174, #19 ) ;
#26 = PERSON_AND_ORGANIZATION ( #164, #112 ) ;
#27 = SHAPE_DEFINITION_REPRESENTATION ( #87, #130 ) ;
#28 = EDGE_LOOP ( 'NONE', ( #128 ) ) ;
#29 = DIRECTION ( 'NONE',  ( 0.0000000000000000000, 1.000000000000000000, 0.0000000000000000000 ) ) ;
#30 = ORIENTED_EDGE ( 'NONE', *, *, #169, .F. ) ;
#31 = EDGE_LOOP ( 'NONE', ( #77 ) ) ;
#32 = CC_DESIGN_DATE_AND_TIME_ASSIGNMENT ( #106, #179, ( #212 ) ) ;
#33 = CARTESIAN_POINT ( 'NONE',  ( 3.491481338843133355E-14, -1.224646799147353256E-15, 10.00000000000000000 ) ) ;
#34 = APPROVAL ( #207, 'UNSPECIFIED' ) ;
#35 = FACE_BOUND ( 'NONE', #13, .T. ) ;
#36 = LOCAL_TIME ( 10, 12, 39.00000000000000000, #125 ) ;
#37 = CARTESIAN_POINT ( 'NONE',  ( 0.0000000000000000000, 0.0000000000000000000, 0.0000000000000000000 ) ) ;
#38 = FACE_OUTER_BOUND ( 'NONE', #79, .T. ) ;
#39 = AXIS2_PLACEMENT_3D ( 'NONE', #8, #205, #101 ) ;
#40 = APPROVAL_DATE_TIME ( #160, #116 ) ;
#41 = CALENDAR_DATE ( 2021, 8, 10 ) ;
#42 = LOCAL_TIME ( 10, 12, 39.00000000000000000, #177 ) ;
#43 = APPROVAL_DATE_TIME ( #126, #20 ) ;
#44 = CC_DESIGN_PERSON_AND_ORGANIZATION_ASSIGNMENT ( #58, #161, ( #212 ) ) ;
#45 = DIRECTION ( 'NONE',  ( -3.491481338843133355E-15, 1.224646799147353207E-16, -1.000000000000000000 ) ) ;
#46 = AXIS2_PLACEMENT_3D ( 'NONE', #21, #201, #67 ) ;
#47 = EDGE_CURVE ( 'NONE', #203, #203, #102, .T. ) ;
#48 = CLOSED_SHELL ( 'NONE', ( #56, #59, #202 ) ) ;
#49 = DIRECTION ( 'NONE',  ( -3.491481338843133355E-15, 1.224646799147353207E-16, -1.000000000000000000 ) ) ;
#50 = PLANE ( 'NONE',  #163 ) ;
#51 = AXIS2_PLACEMENT_3D ( 'NONE', #96, #14, #171 ) ;
#52 = DIRECTION ( 'NONE',  ( -4.275831445896958607E-31, -1.000000000000000000, -1.224646799147353207E-16 ) ) ;
#53 = DIRECTION ( 'NONE',  ( 3.491481338843133355E-15, -1.224646799147353207E-16, 1.000000000000000000 ) ) ;
#54 = PERSON_AND_ORGANIZATION ( #164, #112 ) ;
#55 = CC_DESIGN_APPROVAL ( #34, ( #92 ) ) ;
#56 = ADVANCED_FACE ( 'NONE', ( #166 ), #6, .T. ) ;
#57 = PERSON_AND_ORGANIZATION_ROLE ( 'creator' ) ;
#58 = PERSON_AND_ORGANIZATION ( #164, #112 ) ;
#59 = ADVANCED_FACE ( 'NONE', ( #170, #38 ), #139, .T. ) ;
#60 = DATE_AND_TIME ( #176, #42 ) ;
#61 = MANIFOLD_SOLID_BREP ( 'Corps-Déplacer/Copier1[1]', #24 ) ;
#62 = EDGE_LOOP ( 'NONE', ( #194 ) ) ;
#63 = CARTESIAN_POINT ( 'NONE',  ( 1.169168460693961437E-15, -4.100890923069679818E-17, 0.3348631561299861836 ) ) ;
#64 = APPLICATION_CONTEXT ( 'configuration controlled 3d designs of mechanical parts and assemblies' ) ;
#65 = DIRECTION ( 'NONE',  ( -3.491481338843133355E-15, 1.224646799147353207E-16, -1.000000000000000000 ) ) ;
#66 = AXIS2_PLACEMENT_3D ( 'NONE', #220, #187, #52 ) ;
#67 = DIRECTION ( 'NONE',  ( 0.0000000000000000000, 1.000000000000000000, 0.0000000000000000000 ) ) ;
#68 = FACE_OUTER_BOUND ( 'NONE', #31, .T. ) ;
#69 = CARTESIAN_POINT ( 'NONE',  ( 1.169168460693961634E-15, 0.5799999999999989608, 0.3348631561299862391 ) ) ;
#70 = VERTEX_POINT ( 'NONE', #69 ) ;
#71 = APPLICATION_PROTOCOL_DEFINITION ( 'international standard', 'config_control_design', 1994, #17 ) ;
#72 = CIRCLE ( 'NONE', #149, 0.5799999999999989608 ) ;
#73 = DIRECTION ( 'NONE',  ( 1.000000000000000000, 0.0000000000000000000, 0.0000000000000000000 ) ) ;
#74 = PERSON_AND_ORGANIZATION_ROLE ( 'design_owner' ) ;
#75 = CALENDAR_DATE ( 2021, 8, 10 ) ;
#76 = APPROVAL_ROLE ( '' ) ;
#77 = ORIENTED_EDGE ( 'NONE', *, *, #23, .F. ) ;
#78 = PRODUCT_RELATED_PRODUCT_CATEGORY ( 'detail', '', ( #148 ) ) ;
#79 = EDGE_LOOP ( 'NONE', ( #9 ) ) ;
#80 = AXIS2_PLACEMENT_3D ( 'NONE', #145, #162, #73 ) ;
#81 = ADVANCED_FACE ( 'NONE', ( #155, #35 ), #137, .T. ) ;
#82 = FACE_OUTER_BOUND ( 'NONE', #147, .T. ) ;
#83 = CARTESIAN_POINT ( 'NONE',  ( 3.594287531076566609E-14, -1.260706357264000027E-15, 10.29444863728670967 ) ) ;
#84 = CARTESIAN_POINT ( 'NONE',  ( 3.594287531076566609E-14, -1.260706357264000027E-15, 10.29444863728670967 ) ) ;
#85 = FACE_BOUND ( 'NONE', #150, .T. ) ;
#86 = MECHANICAL_CONTEXT ( 'NONE', #17, 'mechanical' ) ;
#87 = PRODUCT_DEFINITION_SHAPE ( 'NONE', 'NONE',  #92 ) ;
#88 = COORDINATED_UNIVERSAL_TIME_OFFSET ( 1, 0, .AHEAD. ) ;
#89 = DATE_TIME_ROLE ( 'creation_date' ) ;
#90 = CARTESIAN_POINT ( 'NONE',  ( 1.040461438975253740E-13, -3.649447461459112464E-15, 29.80000000000000071 ) ) ;
#91 = AXIS2_PLACEMENT_3D ( 'NONE', #18, #200, #222 ) ;
#92 = PRODUCT_DEFINITION ( 'UNKNOWN', '', #12, #129 ) ;
#93 = EDGE_LOOP ( 'NONE', ( #197 ) ) ;
#94 = EDGE_LOOP ( 'NONE', ( #215 ) ) ;
#95 =( LENGTH_UNIT ( ) NAMED_UNIT ( * ) SI_UNIT ( .MILLI., .METRE. ) );
#96 = CARTESIAN_POINT ( 'NONE',  ( 0.0000000000000000000, 0.0000000000000000000, 0.0000000000000000000 ) ) ;
#97 = CC_DESIGN_APPROVAL ( #20, ( #212 ) ) ;
#98 = CC_DESIGN_PERSON_AND_ORGANIZATION_ASSIGNMENT ( #192, #105, ( #12 ) ) ;
#99 = PLANE ( 'NONE',  #91 ) ;
#100 = FACE_OUTER_BOUND ( 'NONE', #184, .T. ) ;
#101 = DIRECTION ( 'NONE',  ( -3.320568869633171017E-31, -1.000000000000000000, -9.346570452461261315E-17 ) ) ;
#102 = CIRCLE ( 'NONE', #141, 0.7500000000000000000 ) ;
#103 = APPROVAL_ROLE ( '' ) ;
#104 = DATE_AND_TIME ( #142, #221 ) ;
#105 = PERSON_AND_ORGANIZATION_ROLE ( 'design_supplier' ) ;
#106 = DATE_AND_TIME ( #41, #36 ) ;
#107 = SECURITY_CLASSIFICATION_LEVEL ( 'unclassified' ) ;
#108 = ADVANCED_FACE ( 'NONE', ( #68 ), #50, .F. ) ;
#109 = DIRECTION ( 'NONE',  ( 0.0000000000000000000, 1.000000000000000000, 0.0000000000000000000 ) ) ;
#110 = APPROVAL_PERSON_ORGANIZATION ( #180, #34, #143 ) ;
#111 = CC_DESIGN_PERSON_AND_ORGANIZATION_ASSIGNMENT ( #54, #74, ( #148 ) ) ;
#112 = ORGANIZATION ( 'UNSPECIFIED', 'UNSPECIFIED', '' ) ;
#113 = CYLINDRICAL_SURFACE ( 'NONE', #25, 0.7499999999999987788 ) ;
#114 = UNCERTAINTY_MEASURE_WITH_UNIT (LENGTH_MEASURE( 1.000000000000000082E-05 ), #95, 'distance_accuracy_value', 'NONE');
#115 = DIRECTION ( 'NONE',  ( -3.491481338843133355E-15, 1.224646799147353207E-16, -1.000000000000000000 ) ) ;
#116 = APPROVAL ( #210, 'UNSPECIFIED' ) ;
#117 = FACE_OUTER_BOUND ( 'NONE', #168, .T. ) ;
#118 = AXIS2_PLACEMENT_3D ( 'NONE', #84, #53, #157 ) ;
#119 = CARTESIAN_POINT ( 'NONE',  ( 1.047444401652940007E-13, 0.5499999999999963807, 30.00000000000000000 ) ) ;
#120 = VERTEX_POINT ( 'NONE', #189 ) ;
#121 = LOCAL_TIME ( 10, 12, 39.00000000000000000, #88 ) ;
#122 = CC_DESIGN_APPROVAL ( #116, ( #12 ) ) ;
#123 = PERSON_AND_ORGANIZATION ( #164, #112 ) ;
#124 = CALENDAR_DATE ( 2021, 8, 10 ) ;
#125 = COORDINATED_UNIVERSAL_TIME_OFFSET ( 1, 0, .AHEAD. ) ;
#126 = DATE_AND_TIME ( #75, #178 ) ;
#127 = ORIENTED_EDGE ( 'NONE', *, *, #134, .T. ) ;
#128 = ORIENTED_EDGE ( 'NONE', *, *, #2, .F. ) ;
#129 = DESIGN_CONTEXT ( 'detailed design', #64, 'design' ) ;
#130 = ADVANCED_BREP_SHAPE_REPRESENTATION ( '957893', ( #61, #132, #80 ), #7 ) ;
#131 = DIRECTION ( 'NONE',  ( 0.0000000000000000000, 1.000000000000000000, 0.0000000000000000000 ) ) ;
#132 = MANIFOLD_SOLID_BREP ( 'Corps-Déplacer/Copier1[2]', #48 ) ;
#133 = DIRECTION ( 'NONE',  ( 0.0000000000000000000, 1.000000000000000000, 0.0000000000000000000 ) ) ;
#134 = EDGE_CURVE ( 'NONE', #185, #185, #11, .T. ) ;
#135 = FACE_OUTER_BOUND ( 'NONE', #213, .T. ) ;
#136 = VERTEX_POINT ( 'NONE', #158 ) ;
#137 = CONICAL_SURFACE ( 'NONE', #46, 0.5500000000000000444, 0.7853981633974512766 ) ;
#138 = CARTESIAN_POINT ( 'NONE',  ( 1.040461438975253740E-13, 0.7499999999999963363, 29.80000000000000071 ) ) ;
#139 = CYLINDRICAL_SURFACE ( 'NONE', #51, 0.5799999999999995159 ) ;
#140 = COORDINATED_UNIVERSAL_TIME_OFFSET ( 1, 0, .AHEAD. ) ;
#141 = AXIS2_PLACEMENT_3D ( 'NONE', #90, #165, #29 ) ;
#142 = CALENDAR_DATE ( 2021, 8, 10 ) ;
#143 = APPROVAL_ROLE ( '' ) ;
#144 = CC_DESIGN_PERSON_AND_ORGANIZATION_ASSIGNMENT ( #209, #57, ( #12 ) ) ;
#145 = CARTESIAN_POINT ( 'NONE',  ( 0.0000000000000000000, 0.0000000000000000000, 0.0000000000000000000 ) ) ;
#146 = APPROVAL_PERSON_ORGANIZATION ( #22, #116, #103 ) ;
#147 = EDGE_LOOP ( 'NONE', ( #127 ) ) ;
#148 = PRODUCT ( '957893', '957893', '', ( #86 ) ) ;
#149 = AXIS2_PLACEMENT_3D ( 'NONE', #63, #181, #153 ) ;
#150 = EDGE_LOOP ( 'NONE', ( #199 ) ) ;
#151 = CONICAL_SURFACE ( 'NONE', #118, 0.7499999999999976685, 0.5235987755982931535 ) ;
#152 = ORIENTED_EDGE ( 'NONE', *, *, #10, .F. ) ;
#153 = DIRECTION ( 'NONE',  ( 3.320568869633171017E-31, 1.000000000000000000, 9.346570452461261315E-17 ) ) ;
#154 = ADVANCED_FACE ( 'NONE', ( #82 ), #186, .F. ) ;
#155 = FACE_OUTER_BOUND ( 'NONE', #62, .T. ) ;
#156 = DIRECTION ( 'NONE',  ( -3.491481338843133355E-15, 1.224646799147353207E-16, -1.000000000000000000 ) ) ;
#157 = DIRECTION ( 'NONE',  ( 0.0000000000000000000, -1.000000000000000000, 0.0000000000000000000 ) ) ;
#158 = CARTESIAN_POINT ( 'NONE',  ( 3.491481338843133355E-14, 0.5799999999999989608, 10.00000000000000000 ) ) ;
#159 = AXIS2_PLACEMENT_3D ( 'NONE', #183, #65, #131 ) ;
#160 = DATE_AND_TIME ( #124, #121 ) ;
#161 = PERSON_AND_ORGANIZATION_ROLE ( 'classification_officer' ) ;
#162 = DIRECTION ( 'NONE',  ( 0.0000000000000000000, 0.0000000000000000000, 1.000000000000000000 ) ) ;
#163 = AXIS2_PLACEMENT_3D ( 'NONE', #188, #49, #16 ) ;
#164 = PERSON ( 'UNSPECIFIED', 'UNSPECIFIED', 'UNSPECIFIED', ('UNSPECIFIED'), ('UNSPECIFIED'), ('UNSPECIFIED') ) ;
#165 = DIRECTION ( 'NONE',  ( -3.491481338843133355E-15, 1.224646799147353207E-16, -1.000000000000000000 ) ) ;
#166 = FACE_OUTER_BOUND ( 'NONE', #93, .T. ) ;
#167 = AXIS2_PLACEMENT_3D ( 'NONE', #33, #115, #223 ) ;
#168 = EDGE_LOOP ( 'NONE', ( #152 ) ) ;
#169 = EDGE_CURVE ( 'NONE', #120, #120, #190, .T. ) ;
#170 = FACE_OUTER_BOUND ( 'NONE', #28, .T. ) ;
#171 = DIRECTION ( 'NONE',  ( 4.275831445896958607E-31, 1.000000000000000000, 1.224646799147353207E-16 ) ) ;
#172 = AXIS2_PLACEMENT_3D ( 'NONE', #83, #156, #133 ) ;
#173 = FACE_OUTER_BOUND ( 'NONE', #94, .T. ) ;
#174 = DIRECTION ( 'NONE',  ( -3.491481338843133355E-15, 1.224646799147353207E-16, -1.000000000000000000 ) ) ;
#175 =( NAMED_UNIT ( * ) SI_UNIT ( $, .STERADIAN. ) SOLID_ANGLE_UNIT ( ) );
#176 = CALENDAR_DATE ( 2021, 8, 10 ) ;
#177 = COORDINATED_UNIVERSAL_TIME_OFFSET ( 1, 0, .AHEAD. ) ;
#178 = LOCAL_TIME ( 10, 12, 39.00000000000000000, #5 ) ;
#179 = DATE_TIME_ROLE ( 'classification_date' ) ;
#180 = PERSON_AND_ORGANIZATION ( #164, #112 ) ;
#181 = DIRECTION ( 'NONE',  ( -3.491481338843133355E-15, 1.224646799147353207E-16, -1.000000000000000000 ) ) ;
#182 = APPROVAL_PERSON_ORGANIZATION ( #26, #20, #76 ) ;
#183 = CARTESIAN_POINT ( 'NONE',  ( 1.047444401652940007E-13, -3.673940397442059178E-15, 30.00000000000000000 ) ) ;
#184 = EDGE_LOOP ( 'NONE', ( #216 ) ) ;
#185 = VERTEX_POINT ( 'NONE', #204 ) ;
#186 = PLANE ( 'NONE',  #66 ) ;
#187 = DIRECTION ( 'NONE',  ( 3.491481338843133355E-15, -1.224646799147353207E-16, 1.000000000000000000 ) ) ;
#188 = CARTESIAN_POINT ( 'NONE',  ( 1.047444401652940007E-13, 4.124339402320052999E-33, 30.00000000000000000 ) ) ;
#189 = CARTESIAN_POINT ( 'NONE',  ( 3.594287531076566609E-14, 0.7499999999999963363, 10.29444863728670967 ) ) ;
#190 = CIRCLE ( 'NONE', #172, 0.7499999999999976685 ) ;
#191 = PERSON_AND_ORGANIZATION_ROLE ( 'creator' ) ;
#192 = PERSON_AND_ORGANIZATION ( #164, #112 ) ;
#193 = APPROVAL_STATUS ( 'not_yet_approved' ) ;
#194 = ORIENTED_EDGE ( 'NONE', *, *, #47, .F. ) ;
#195 = CIRCLE ( 'NONE', #159, 0.5500000000000000444 ) ;
#196 = CC_DESIGN_DATE_AND_TIME_ASSIGNMENT ( #60, #89, ( #92 ) ) ;
#197 = ORIENTED_EDGE ( 'NONE', *, *, #2, .T. ) ;
#198 = AXIS2_PLACEMENT_3D ( 'NONE', #218, #45, #109 ) ;
#199 = ORIENTED_EDGE ( 'NONE', *, *, #134, .F. ) ;
#200 = DIRECTION ( 'NONE',  ( 3.491481338843133355E-15, -1.224646799147353207E-16, 1.000000000000000000 ) ) ;
#201 = DIRECTION ( 'NONE',  ( -3.491481338843133355E-15, 1.224646799147353207E-16, -1.000000000000000000 ) ) ;
#202 = ADVANCED_FACE ( 'NONE', ( #117 ), #99, .T. ) ;
#203 = VERTEX_POINT ( 'NONE', #138 ) ;
#204 = CARTESIAN_POINT ( 'NONE',  ( 3.491481338843133355E-14, 0.5799999999999989608, 10.00000000000000000 ) ) ;
#205 = DIRECTION ( 'NONE',  ( 3.491481338843133355E-15, -1.224646799147353207E-16, 1.000000000000000000 ) ) ;
#206 = ADVANCED_FACE ( 'NONE', ( #135, #100 ), #113, .T. ) ;
#207 = APPROVAL_STATUS ( 'not_yet_approved' ) ;
#208 = CIRCLE ( 'NONE', #198, 0.5800000000000000711 ) ;
#209 = PERSON_AND_ORGANIZATION ( #164, #112 ) ;
#210 = APPROVAL_STATUS ( 'not_yet_approved' ) ;
#211 = APPROVAL_DATE_TIME ( #104, #34 ) ;
#212 = SECURITY_CLASSIFICATION ( '', '', #107 ) ;
#213 = EDGE_LOOP ( 'NONE', ( #30 ) ) ;
#214 = ADVANCED_FACE ( 'NONE', ( #85, #173 ), #151, .T. ) ;
#215 = ORIENTED_EDGE ( 'NONE', *, *, #169, .T. ) ;
#216 = ORIENTED_EDGE ( 'NONE', *, *, #47, .T. ) ;
#217 = ORIENTED_EDGE ( 'NONE', *, *, #23, .T. ) ;
#218 = CARTESIAN_POINT ( 'NONE',  ( 3.491481338843133355E-14, -1.224646799147353256E-15, 10.00000000000000000 ) ) ;
#219 = CC_DESIGN_SECURITY_CLASSIFICATION ( #212, ( #12 ) ) ;
#220 = CARTESIAN_POINT ( 'NONE',  ( 3.491481338843133355E-14, 4.349303369719370231E-33, 10.00000000000000000 ) ) ;
#221 = LOCAL_TIME ( 10, 12, 39.00000000000000000, #140 ) ;
#222 = DIRECTION ( 'NONE',  ( -4.275831445896958607E-31, -1.000000000000000000, -1.224646799147353207E-16 ) ) ;
#223 = DIRECTION ( 'NONE',  ( 0.0000000000000000000, 1.000000000000000000, 0.0000000000000000000 ) ) ;
ENDSEC;
END-ISO-10303-21;
