ISO-10303-21;
HEADER;
FILE_DESCRIPTION (( 'STEP AP203' ),
    '1' );
FILE_NAME ('957889.step',
    '2021-10-08T05:54:12',
    ( '' ),
    ( '' ),
    'SwSTEP 2.0',
    'SolidWorks 2019',
    '' );
FILE_SCHEMA (( 'CONFIG_CONTROL_DESIGN' ));
ENDSEC;

DATA;
#1 = EDGE_CURVE ( 'NONE', #90, #90, #184, .T. ) ;
#2 = ORIENTED_EDGE ( 'NONE', *, *, #1, .T. ) ;
#3 = FACE_OUTER_BOUND ( 'NONE', #205, .T. ) ;
#4 = CIRCLE ( 'NONE', #23, 0.5500000000000000444 ) ;
#5 = ADVANCED_FACE ( 'NONE', ( #86, #186 ), #173, .T. ) ;
#6 = DIRECTION ( 'NONE',  ( 0.0000000000000000000, 1.000000000000000000, 0.0000000000000000000 ) ) ;
#7 = AXIS2_PLACEMENT_3D ( 'NONE', #42, #141, #216 ) ;
#8 = FACE_OUTER_BOUND ( 'NONE', #41, .T. ) ;
#9 = FACE_BOUND ( 'NONE', #208, .T. ) ;
#10 = CARTESIAN_POINT ( 'NONE',  ( 3.142333204958820651E-14, -2.082055338400569970E-31, 9.000000000000001776 ) ) ;
#11 = SECURITY_CLASSIFICATION ( '', '', #50 ) ;
#12 = PLANE ( 'NONE',  #68 ) ;
#13 = SHAPE_DEFINITION_REPRESENTATION ( #21, #207 ) ;
#14 = MECHANICAL_CONTEXT ( 'NONE', #95, 'mechanical' ) ;
#15 = CC_DESIGN_APPROVAL ( #204, ( #11 ) ) ;
#16 = PERSON_AND_ORGANIZATION ( #72, #139 ) ;
#17 = CC_DESIGN_DATE_AND_TIME_ASSIGNMENT ( #185, #69, ( #74 ) ) ;
#18 = CC_DESIGN_APPROVAL ( #212, ( #147 ) ) ;
#19 = CARTESIAN_POINT ( 'NONE',  ( 1.138931345331186197E-15, -3.994833399197187105E-17, 0.3262029020921416445 ) ) ;
#20 = EDGE_LOOP ( 'NONE', ( #52 ) ) ;
#21 = PRODUCT_DEFINITION_SHAPE ( 'NONE', 'NONE',  #74 ) ;
#22 = FACE_OUTER_BOUND ( 'NONE', #134, .T. ) ;
#23 = AXIS2_PLACEMENT_3D ( 'NONE', #194, #47, #6 ) ;
#24 = CARTESIAN_POINT ( 'NONE',  ( 3.142333204958820651E-14, -2.082055338400569970E-31, 9.000000000000001776 ) ) ;
#25 = ADVANCED_FACE ( 'NONE', ( #37, #3 ), #132, .T. ) ;
#26 = CARTESIAN_POINT ( 'NONE',  ( 1.047444401652940007E-13, -3.673940397442059178E-15, 30.00000000000000000 ) ) ;
#27 = CIRCLE ( 'NONE', #221, 0.7499999999999975575 ) ;
#28 = APPROVAL_STATUS ( 'not_yet_approved' ) ;
#29 = CC_DESIGN_PERSON_AND_ORGANIZATION_ASSIGNMENT ( #223, #35, ( #74 ) ) ;
#30 = COORDINATED_UNIVERSAL_TIME_OFFSET ( 1, 0, .AHEAD. ) ;
#31 = CALENDAR_DATE ( 2021, 8, 10 ) ;
#32 = PERSON_AND_ORGANIZATION_ROLE ( 'design_owner' ) ;
#33 = CC_DESIGN_APPROVAL ( #40, ( #74 ) ) ;
#34 = EDGE_CURVE ( 'NONE', #78, #78, #103, .T. ) ;
#35 = PERSON_AND_ORGANIZATION_ROLE ( 'creator' ) ;
#36 = DIRECTION ( 'NONE',  ( -3.491481338843133355E-15, 1.224646799147353207E-16, -1.000000000000000000 ) ) ;
#37 = FACE_OUTER_BOUND ( 'NONE', #87, .T. ) ;
#38 = DIRECTION ( 'NONE',  ( -3.491481338843133355E-15, 1.224646799147353207E-16, -1.000000000000000000 ) ) ;
#39 = CARTESIAN_POINT ( 'NONE',  ( 1.047444401652940007E-13, 4.124339402320052999E-33, 30.00000000000000000 ) ) ;
#40 = APPROVAL ( #28, 'UNSPECIFIED' ) ;
#41 = EDGE_LOOP ( 'NONE', ( #2 ) ) ;
#42 = CARTESIAN_POINT ( 'NONE',  ( 3.142333204958820651E-14, -1.102182119232617911E-15, 9.000000000000001776 ) ) ;
#43 = VERTEX_POINT ( 'NONE', #214 ) ;
#44 = CC_DESIGN_SECURITY_CLASSIFICATION ( #11, ( #147 ) ) ;
#45 = CLOSED_SHELL ( 'NONE', ( #215, #106, #5, #70, #57 ) ) ;
#46 =( NAMED_UNIT ( * ) SI_UNIT ( $, .STERADIAN. ) SOLID_ANGLE_UNIT ( ) );
#47 = DIRECTION ( 'NONE',  ( -3.491481338843133355E-15, 1.224646799147353207E-16, -1.000000000000000000 ) ) ;
#48 = CIRCLE ( 'NONE', #7, 0.5650000000000010569 ) ;
#49 = PERSON_AND_ORGANIZATION ( #72, #139 ) ;
#50 = SECURITY_CLASSIFICATION_LEVEL ( 'unclassified' ) ;
#51 = PERSON_AND_ORGANIZATION ( #72, #139 ) ;
#52 = ORIENTED_EDGE ( 'NONE', *, *, #189, .T. ) ;
#53 = PRODUCT_RELATED_PRODUCT_CATEGORY ( 'detail', '', ( #152 ) ) ;
#54 = LOCAL_TIME ( 7, 54, 12.00000000000000000, #181 ) ;
#55 = CLOSED_SHELL ( 'NONE', ( #88, #25, #145 ) ) ;
#56 = EDGE_LOOP ( 'NONE', ( #191 ) ) ;
#57 = ADVANCED_FACE ( 'NONE', ( #156 ), #119, .F. ) ;
#58 = DIRECTION ( 'NONE',  ( 4.275831445896959482E-31, 1.000000000000000000, 1.224646799147353207E-16 ) ) ;
#59 = DIRECTION ( 'NONE',  ( 0.0000000000000000000, 1.000000000000000000, 0.0000000000000000000 ) ) ;
#60 = FACE_OUTER_BOUND ( 'NONE', #20, .T. ) ;
#61 = CARTESIAN_POINT ( 'NONE',  ( 1.040461438975253740E-13, -3.649447461459112464E-15, 29.80000000000000071 ) ) ;
#62 = DIRECTION ( 'NONE',  ( 3.491481338843133355E-15, -1.224646799147353207E-16, 1.000000000000000000 ) ) ;
#63 = CONICAL_SURFACE ( 'NONE', #110, 0.5649999999999988365, 1.047197551196592746 ) ;
#64 = MANIFOLD_SOLID_BREP ( 'Corps-Déplacer/Copier1[1]', #45 ) ;
#65 = DIRECTION ( 'NONE',  ( -3.408725565287150070E-31, -1.000000000000000000, -9.594709491022182745E-17 ) ) ;
#66 = DIRECTION ( 'NONE',  ( -4.275831445896958607E-31, -1.000000000000000000, -1.224646799147353207E-16 ) ) ;
#67 = APPLICATION_PROTOCOL_DEFINITION ( 'international standard', 'config_control_design', 1994, #95 ) ;
#68 = AXIS2_PLACEMENT_3D ( 'NONE', #10, #62, #66 ) ;
#69 = DATE_TIME_ROLE ( 'creation_date' ) ;
#70 = ADVANCED_FACE ( 'NONE', ( #197, #9 ), #83, .T. ) ;
#71 = DATE_AND_TIME ( #127, #54 ) ;
#72 = PERSON ( 'UNSPECIFIED', 'UNSPECIFIED', 'UNSPECIFIED', ('UNSPECIFIED'), ('UNSPECIFIED'), ('UNSPECIFIED') ) ;
#73 = CARTESIAN_POINT ( 'NONE',  ( 0.0000000000000000000, 0.0000000000000000000, 0.0000000000000000000 ) ) ;
#74 = PRODUCT_DEFINITION ( 'UNKNOWN', '', #147, #176 ) ;
#75 = ORIENTED_EDGE ( 'NONE', *, *, #34, .F. ) ;
#76 = EDGE_LOOP ( 'NONE', ( #192 ) ) ;
#77 = DIRECTION ( 'NONE',  ( 0.0000000000000000000, 1.000000000000000000, 0.0000000000000000000 ) ) ;
#78 = VERTEX_POINT ( 'NONE', #158 ) ;
#79 = VERTEX_POINT ( 'NONE', #196 ) ;
#80 = APPROVAL_PERSON_ORGANIZATION ( #112, #40, #129 ) ;
#81 = EDGE_CURVE ( 'NONE', #195, #195, #48, .T. ) ;
#82 = FACE_OUTER_BOUND ( 'NONE', #76, .T. ) ;
#83 = CONICAL_SURFACE ( 'NONE', #155, 0.5500000000000000444, 0.7853981633974516097 ) ;
#84 = PERSON_AND_ORGANIZATION ( #72, #139 ) ;
#85 = AXIS2_PLACEMENT_3D ( 'NONE', #39, #96, #124 ) ;
#86 = FACE_OUTER_BOUND ( 'NONE', #137, .T. ) ;
#87 = EDGE_LOOP ( 'NONE', ( #75 ) ) ;
#88 = ADVANCED_FACE ( 'NONE', ( #82 ), #63, .T. ) ;
#89 = DIRECTION ( 'NONE',  ( 3.408725565287150070E-31, 1.000000000000000000, 9.594709491022182745E-17 ) ) ;
#90 = VERTEX_POINT ( 'NONE', #143 ) ;
#91 = EDGE_CURVE ( 'NONE', #123, #123, #4, .T. ) ;
#92 = DIRECTION ( 'NONE',  ( 3.491481338843133355E-15, -1.224646799147353207E-16, 1.000000000000000000 ) ) ;
#93 =( GEOMETRIC_REPRESENTATION_CONTEXT ( 3 ) GLOBAL_UNCERTAINTY_ASSIGNED_CONTEXT ( ( #193 ) ) GLOBAL_UNIT_ASSIGNED_CONTEXT ( ( #108, #177, #46 ) ) REPRESENTATION_CONTEXT ( 'NONE', 'WORKASPACE' ) );
#94 = AXIS2_PLACEMENT_3D ( 'NONE', #105, #170, #171 ) ;
#95 = APPLICATION_CONTEXT ( 'configuration controlled 3d designs of mechanical parts and assemblies' ) ;
#96 = DIRECTION ( 'NONE',  ( -3.491481338843133355E-15, 1.224646799147353207E-16, -1.000000000000000000 ) ) ;
#97 = AXIS2_PLACEMENT_3D ( 'NONE', #73, #36, #58 ) ;
#98 = PERSON_AND_ORGANIZATION_ROLE ( 'design_supplier' ) ;
#99 = COORDINATED_UNIVERSAL_TIME_OFFSET ( 1, 0, .AHEAD. ) ;
#100 = APPROVAL_DATE_TIME ( #199, #40 ) ;
#101 = DATE_TIME_ROLE ( 'classification_date' ) ;
#102 = CC_DESIGN_DATE_AND_TIME_ASSIGNMENT ( #113, #101, ( #11 ) ) ;
#103 = CIRCLE ( 'NONE', #168, 0.5649999999999988365 ) ;
#104 = APPLICATION_CONTEXT ( 'configuration controlled 3d designs of mechanical parts and assemblies' ) ;
#105 = CARTESIAN_POINT ( 'NONE',  ( 0.0000000000000000000, 0.0000000000000000000, 0.0000000000000000000 ) ) ;
#106 = ADVANCED_FACE ( 'NONE', ( #163, #60 ), #202, .T. ) ;
#107 = CARTESIAN_POINT ( 'NONE',  ( 3.254210531801085787E-14, -1.141423403065439420E-15, 9.320429399400241621 ) ) ;
#108 =( LENGTH_UNIT ( ) NAMED_UNIT ( * ) SI_UNIT ( .MILLI., .METRE. ) );
#109 = DIRECTION ( 'NONE',  ( 0.0000000000000000000, -1.000000000000000000, 0.0000000000000000000 ) ) ;
#110 = AXIS2_PLACEMENT_3D ( 'NONE', #178, #211, #65 ) ;
#111 = APPROVAL_STATUS ( 'not_yet_approved' ) ;
#112 = PERSON_AND_ORGANIZATION ( #72, #139 ) ;
#113 = DATE_AND_TIME ( #144, #175 ) ;
#114 = CALENDAR_DATE ( 2021, 8, 10 ) ;
#115 = DIRECTION ( 'NONE',  ( -3.491481338843133355E-15, 1.224646799147353207E-16, -1.000000000000000000 ) ) ;
#116 = LOCAL_TIME ( 7, 54, 12.00000000000000000, #30 ) ;
#117 = ORIENTED_EDGE ( 'NONE', *, *, #81, .F. ) ;
#118 = ORIENTED_EDGE ( 'NONE', *, *, #81, .T. ) ;
#119 = PLANE ( 'NONE',  #85 ) ;
#120 = AXIS2_PLACEMENT_3D ( 'NONE', #61, #121, #174 ) ;
#121 = DIRECTION ( 'NONE',  ( -3.491481338843133355E-15, 1.224646799147353207E-16, -1.000000000000000000 ) ) ;
#122 = CARTESIAN_POINT ( 'NONE',  ( 3.254210531801085787E-14, -1.141423403065439420E-15, 9.320429399400241621 ) ) ;
#123 = VERTEX_POINT ( 'NONE', #162 ) ;
#124 = DIRECTION ( 'NONE',  ( 4.275831445896958607E-31, 1.000000000000000000, 1.224646799147353207E-16 ) ) ;
#125 = CALENDAR_DATE ( 2021, 8, 10 ) ;
#126 = CC_DESIGN_PERSON_AND_ORGANIZATION_ASSIGNMENT ( #49, #164, ( #11 ) ) ;
#127 = CALENDAR_DATE ( 2021, 8, 10 ) ;
#128 = APPROVAL_DATE_TIME ( #71, #212 ) ;
#129 = APPROVAL_ROLE ( '' ) ;
#130 = CC_DESIGN_PERSON_AND_ORGANIZATION_ASSIGNMENT ( #182, #32, ( #152 ) ) ;
#131 = APPROVAL_PERSON_ORGANIZATION ( #84, #204, #149 ) ;
#132 = CYLINDRICAL_SURFACE ( 'NONE', #94, 0.5649999999999999467 ) ;
#133 = AXIS2_PLACEMENT_3D ( 'NONE', #24, #161, #213 ) ;
#134 = EDGE_LOOP ( 'NONE', ( #117 ) ) ;
#135 = CARTESIAN_POINT ( 'NONE',  ( 3.142333204958820651E-14, -1.102182119232617911E-15, 9.000000000000001776 ) ) ;
#136 = CC_DESIGN_PERSON_AND_ORGANIZATION_ASSIGNMENT ( #16, #98, ( #147 ) ) ;
#137 = EDGE_LOOP ( 'NONE', ( #153 ) ) ;
#138 = DIRECTION ( 'NONE',  ( -3.491481338843133355E-15, 1.224646799147353207E-16, -1.000000000000000000 ) ) ;
#139 = ORGANIZATION ( 'UNSPECIFIED', 'UNSPECIFIED', '' ) ;
#140 = PLANE ( 'NONE',  #133 ) ;
#141 = DIRECTION ( 'NONE',  ( -3.491481338843133355E-15, 1.224646799147353207E-16, -1.000000000000000000 ) ) ;
#142 = APPROVAL_PERSON_ORGANIZATION ( #167, #212, #222 ) ;
#143 = CARTESIAN_POINT ( 'NONE',  ( 3.142333204958820651E-14, 0.5649999999999999467, 9.000000000000001776 ) ) ;
#144 = CALENDAR_DATE ( 2021, 8, 10 ) ;
#145 = ADVANCED_FACE ( 'NONE', ( #22 ), #12, .T. ) ;
#146 = DIRECTION ( 'NONE',  ( 1.000000000000000000, 0.0000000000000000000, 0.0000000000000000000 ) ) ;
#147 = PRODUCT_DEFINITION_FORMATION_WITH_SPECIFIED_SOURCE ( 'ANY', '', #152, .NOT_KNOWN. ) ;
#148 = DIRECTION ( 'NONE',  ( 0.0000000000000000000, 0.0000000000000000000, 1.000000000000000000 ) ) ;
#149 = APPROVAL_ROLE ( '' ) ;
#150 = LOCAL_TIME ( 7, 54, 12.00000000000000000, #166 ) ;
#151 = ORIENTED_EDGE ( 'NONE', *, *, #180, .F. ) ;
#152 = PRODUCT ( '957889', '957889', '', ( #14 ) ) ;
#153 = ORIENTED_EDGE ( 'NONE', *, *, #189, .F. ) ;
#154 = EDGE_LOOP ( 'NONE', ( #190 ) ) ;
#155 = AXIS2_PLACEMENT_3D ( 'NONE', #26, #138, #179 ) ;
#156 = FACE_OUTER_BOUND ( 'NONE', #169, .T. ) ;
#157 = CC_DESIGN_PERSON_AND_ORGANIZATION_ASSIGNMENT ( #51, #200, ( #147 ) ) ;
#158 = CARTESIAN_POINT ( 'NONE',  ( 1.138931345331186394E-15, 0.5649999999999988365, 0.3262029020921417000 ) ) ;
#159 = DIRECTION ( 'NONE',  ( -3.491481338843133355E-15, 1.224646799147353207E-16, -1.000000000000000000 ) ) ;
#160 = AXIS2_PLACEMENT_3D ( 'NONE', #135, #115, #59 ) ;
#161 = DIRECTION ( 'NONE',  ( 3.491481338843133355E-15, -1.224646799147353207E-16, 1.000000000000000000 ) ) ;
#162 = CARTESIAN_POINT ( 'NONE',  ( 1.047444401652940007E-13, 0.5499999999999963807, 30.00000000000000000 ) ) ;
#163 = FACE_BOUND ( 'NONE', #154, .T. ) ;
#164 = PERSON_AND_ORGANIZATION_ROLE ( 'classification_officer' ) ;
#165 = DATE_AND_TIME ( #114, #206 ) ;
#166 = COORDINATED_UNIVERSAL_TIME_OFFSET ( 1, 0, .AHEAD. ) ;
#167 = PERSON_AND_ORGANIZATION ( #72, #139 ) ;
#168 = AXIS2_PLACEMENT_3D ( 'NONE', #19, #38, #89 ) ;
#169 = EDGE_LOOP ( 'NONE', ( #188 ) ) ;
#170 = DIRECTION ( 'NONE',  ( -3.491481338843133355E-15, 1.224646799147353207E-16, -1.000000000000000000 ) ) ;
#171 = DIRECTION ( 'NONE',  ( 4.275831445896958607E-31, 1.000000000000000000, 1.224646799147353207E-16 ) ) ;
#172 = AXIS2_PLACEMENT_3D ( 'NONE', #107, #92, #109 ) ;
#173 = CYLINDRICAL_SURFACE ( 'NONE', #97, 0.7499999999999987788 ) ;
#174 = DIRECTION ( 'NONE',  ( 0.0000000000000000000, 1.000000000000000000, 0.0000000000000000000 ) ) ;
#175 = LOCAL_TIME ( 7, 54, 12.00000000000000000, #99 ) ;
#176 = DESIGN_CONTEXT ( 'detailed design', #104, 'design' ) ;
#177 =( NAMED_UNIT ( * ) PLANE_ANGLE_UNIT ( ) SI_UNIT ( $, .RADIAN. ) );
#178 = CARTESIAN_POINT ( 'NONE',  ( 1.138931345331186197E-15, -3.994833399197187105E-17, 0.3262029020921416445 ) ) ;
#179 = DIRECTION ( 'NONE',  ( 0.0000000000000000000, 1.000000000000000000, 0.0000000000000000000 ) ) ;
#180 = EDGE_CURVE ( 'NONE', #79, #79, #187, .T. ) ;
#181 = COORDINATED_UNIVERSAL_TIME_OFFSET ( 1, 0, .AHEAD. ) ;
#182 = PERSON_AND_ORGANIZATION ( #72, #139 ) ;
#183 = APPROVAL_STATUS ( 'not_yet_approved' ) ;
#184 = CIRCLE ( 'NONE', #160, 0.5650000000000010569 ) ;
#185 = DATE_AND_TIME ( #125, #150 ) ;
#186 = FACE_OUTER_BOUND ( 'NONE', #56, .T. ) ;
#187 = CIRCLE ( 'NONE', #120, 0.7500000000000001110 ) ;
#188 = ORIENTED_EDGE ( 'NONE', *, *, #91, .F. ) ;
#189 = EDGE_CURVE ( 'NONE', #43, #43, #27, .T. ) ;
#190 = ORIENTED_EDGE ( 'NONE', *, *, #1, .F. ) ;
#191 = ORIENTED_EDGE ( 'NONE', *, *, #180, .T. ) ;
#192 = ORIENTED_EDGE ( 'NONE', *, *, #34, .T. ) ;
#193 = UNCERTAINTY_MEASURE_WITH_UNIT (LENGTH_MEASURE( 1.000000000000000082E-05 ), #108, 'distance_accuracy_value', 'NONE');
#194 = CARTESIAN_POINT ( 'NONE',  ( 1.047444401652940007E-13, -3.673940397442059178E-15, 30.00000000000000000 ) ) ;
#195 = VERTEX_POINT ( 'NONE', #217 ) ;
#196 = CARTESIAN_POINT ( 'NONE',  ( 1.040461438975253740E-13, 0.7499999999999964473, 29.80000000000000071 ) ) ;
#197 = FACE_OUTER_BOUND ( 'NONE', #210, .T. ) ;
#198 = APPROVAL_DATE_TIME ( #165, #204 ) ;
#199 = DATE_AND_TIME ( #31, #116 ) ;
#200 = PERSON_AND_ORGANIZATION_ROLE ( 'creator' ) ;
#201 = CARTESIAN_POINT ( 'NONE',  ( 0.0000000000000000000, 0.0000000000000000000, 0.0000000000000000000 ) ) ;
#202 = CONICAL_SURFACE ( 'NONE', #172, 0.7499999999999975575, 0.5235987755982925984 ) ;
#203 = MANIFOLD_SOLID_BREP ( 'Corps-Déplacer/Copier1[2]', #55 ) ;
#204 = APPROVAL ( #111, 'UNSPECIFIED' ) ;
#205 = EDGE_LOOP ( 'NONE', ( #118 ) ) ;
#206 = LOCAL_TIME ( 7, 54, 12.00000000000000000, #218 ) ;
#207 = ADVANCED_BREP_SHAPE_REPRESENTATION ( '957889', ( #64, #203, #220 ), #93 ) ;
#208 = EDGE_LOOP ( 'NONE', ( #209 ) ) ;
#209 = ORIENTED_EDGE ( 'NONE', *, *, #91, .T. ) ;
#210 = EDGE_LOOP ( 'NONE', ( #151 ) ) ;
#211 = DIRECTION ( 'NONE',  ( 3.491481338843133355E-15, -1.224646799147353207E-16, 1.000000000000000000 ) ) ;
#212 = APPROVAL ( #183, 'UNSPECIFIED' ) ;
#213 = DIRECTION ( 'NONE',  ( -4.275831445896958607E-31, -1.000000000000000000, -1.224646799147353207E-16 ) ) ;
#214 = CARTESIAN_POINT ( 'NONE',  ( 3.254210531801085787E-14, 0.7499999999999963363, 9.320429399400241621 ) ) ;
#215 = ADVANCED_FACE ( 'NONE', ( #8 ), #140, .F. ) ;
#216 = DIRECTION ( 'NONE',  ( 0.0000000000000000000, 1.000000000000000000, 0.0000000000000000000 ) ) ;
#217 = CARTESIAN_POINT ( 'NONE',  ( 3.142333204958820651E-14, 0.5649999999999999467, 9.000000000000001776 ) ) ;
#218 = COORDINATED_UNIVERSAL_TIME_OFFSET ( 1, 0, .AHEAD. ) ;
#219 = APPLICATION_PROTOCOL_DEFINITION ( 'international standard', 'config_control_design', 1994, #104 ) ;
#220 = AXIS2_PLACEMENT_3D ( 'NONE', #201, #148, #146 ) ;
#221 = AXIS2_PLACEMENT_3D ( 'NONE', #122, #159, #77 ) ;
#222 = APPROVAL_ROLE ( '' ) ;
#223 = PERSON_AND_ORGANIZATION ( #72, #139 ) ;
ENDSEC;
END-ISO-10303-21;
