ISO-10303-21;
HEADER;
FILE_DESCRIPTION (( 'STEP AP203' ),
    '1' );
FILE_NAME ('957887.step',
    '2021-10-08T08:12:38',
    ( '' ),
    ( '' ),
    'SwSTEP 2.0',
    'SolidWorks 2019',
    '' );
FILE_SCHEMA (( 'CONFIG_CONTROL_DESIGN' ));
ENDSEC;

DATA;
#1 = CIRCLE ( 'NONE', #213, 0.7500000000000000000 ) ;
#2 = FACE_OUTER_BOUND ( 'NONE', #98, .T. ) ;
#3 = DIRECTION ( 'NONE',  ( -3.491481338843133355E-15, 1.224646799147353207E-16, -1.000000000000000000 ) ) ;
#4 = EDGE_CURVE ( 'NONE', #182, #182, #32, .T. ) ;
#5 = FACE_BOUND ( 'NONE', #33, .T. ) ;
#6 = AXIS2_PLACEMENT_3D ( 'NONE', #37, #157, #18 ) ;
#7 = CARTESIAN_POINT ( 'NONE',  ( 1.118773268422670290E-15, -3.924128383282194633E-17, 0.3204293994002454515 ) ) ;
#8 = CLOSED_SHELL ( 'NONE', ( #142, #210, #15 ) ) ;
#9 = CC_DESIGN_PERSON_AND_ORGANIZATION_ASSIGNMENT ( #215, #65, ( #222 ) ) ;
#10 = PERSON_AND_ORGANIZATION ( #174, #169 ) ;
#11 = MECHANICAL_CONTEXT ( 'NONE', #48, 'mechanical' ) ;
#12 = PERSON_AND_ORGANIZATION_ROLE ( 'creator' ) ;
#13 = EDGE_LOOP ( 'NONE', ( #34 ) ) ;
#14 =( GEOMETRIC_REPRESENTATION_CONTEXT ( 3 ) GLOBAL_UNCERTAINTY_ASSIGNED_CONTEXT ( ( #183 ) ) GLOBAL_UNIT_ASSIGNED_CONTEXT ( ( #60, #165, #218 ) ) REPRESENTATION_CONTEXT ( 'NONE', 'WORKASPACE' ) );
#15 = ADVANCED_FACE ( 'NONE', ( #171 ), #205, .T. ) ;
#16 = PERSON_AND_ORGANIZATION_ROLE ( 'classification_officer' ) ;
#17 = EDGE_LOOP ( 'NONE', ( #140 ) ) ;
#18 = DIRECTION ( 'NONE',  ( -4.275831445896958607E-31, -1.000000000000000000, -1.224646799147353207E-16 ) ) ;
#19 = CARTESIAN_POINT ( 'NONE',  ( 1.047444401652940007E-13, -3.673940397442059178E-15, 30.00000000000000000 ) ) ;
#20 = DIRECTION ( 'NONE',  ( 3.491481338843133355E-15, -1.224646799147353207E-16, 1.000000000000000000 ) ) ;
#21 = CALENDAR_DATE ( 2021, 8, 10 ) ;
#22 = ADVANCED_BREP_SHAPE_REPRESENTATION ( '957887', ( #57, #138, #88 ), #14 ) ;
#23 = CIRCLE ( 'NONE', #46, 0.5550000000000010481 ) ;
#24 = ADVANCED_FACE ( 'NONE', ( #143, #207 ), #122, .T. ) ;
#25 = DATE_AND_TIME ( #178, #204 ) ;
#26 = CARTESIAN_POINT ( 'NONE',  ( 1.040461438975253740E-13, 0.7499999999999963363, 29.80000000000000071 ) ) ;
#27 = VERTEX_POINT ( 'NONE', #26 ) ;
#28 = EDGE_CURVE ( 'NONE', #150, #150, #189, .T. ) ;
#29 = AXIS2_PLACEMENT_3D ( 'NONE', #211, #71, #141 ) ;
#30 = VERTEX_POINT ( 'NONE', #91 ) ;
#31 = APPROVAL ( #156, 'UNSPECIFIED' ) ;
#32 = CIRCLE ( 'NONE', #185, 0.5550000000000010481 ) ;
#33 = EDGE_LOOP ( 'NONE', ( #161 ) ) ;
#34 = ORIENTED_EDGE ( 'NONE', *, *, #28, .T. ) ;
#35 = FACE_OUTER_BOUND ( 'NONE', #200, .T. ) ;
#36 = DIRECTION ( 'NONE',  ( -3.491481338843133355E-15, 1.224646799147353207E-16, -1.000000000000000000 ) ) ;
#37 = CARTESIAN_POINT ( 'NONE',  ( 3.142333204958820651E-14, -2.082805218291900959E-31, 9.000000000000001776 ) ) ;
#38 = DIRECTION ( 'NONE',  ( 0.0000000000000000000, -1.000000000000000000, 0.0000000000000000000 ) ) ;
#39 = APPLICATION_PROTOCOL_DEFINITION ( 'international standard', 'config_control_design', 1994, #48 ) ;
#40 = CC_DESIGN_APPROVAL ( #42, ( #222 ) ) ;
#41 = CARTESIAN_POINT ( 'NONE',  ( 0.0000000000000000000, 0.0000000000000000000, 0.0000000000000000000 ) ) ;
#42 = APPROVAL ( #73, 'UNSPECIFIED' ) ;
#43 = VERTEX_POINT ( 'NONE', #180 ) ;
#44 = EDGE_LOOP ( 'NONE', ( #151 ) ) ;
#45 = DATE_AND_TIME ( #21, #163 ) ;
#46 = AXIS2_PLACEMENT_3D ( 'NONE', #66, #54, #170 ) ;
#47 = PERSON_AND_ORGANIZATION ( #174, #169 ) ;
#48 = APPLICATION_CONTEXT ( 'configuration controlled 3d designs of mechanical parts and assemblies' ) ;
#49 = APPROVAL ( #134, 'UNSPECIFIED' ) ;
#50 = APPROVAL_DATE_TIME ( #187, #31 ) ;
#51 = CARTESIAN_POINT ( 'NONE',  ( 0.0000000000000000000, 0.0000000000000000000, 0.0000000000000000000 ) ) ;
#52 = PERSON_AND_ORGANIZATION ( #174, #169 ) ;
#53 = CARTESIAN_POINT ( 'NONE',  ( 1.040461438975253740E-13, -3.649447461459112464E-15, 29.80000000000000071 ) ) ;
#54 = DIRECTION ( 'NONE',  ( -3.491481338843133355E-15, 1.224646799147353207E-16, -1.000000000000000000 ) ) ;
#55 = AXIS2_PLACEMENT_3D ( 'NONE', #85, #68, #209 ) ;
#56 = DIRECTION ( 'NONE',  ( 3.491481338843133355E-15, -1.224646799147353207E-16, 1.000000000000000000 ) ) ;
#57 = MANIFOLD_SOLID_BREP ( 'Corps-Déplacer/Copier1[1]', #99 ) ;
#58 = CYLINDRICAL_SURFACE ( 'NONE', #217, 0.5549999999999999378 ) ;
#59 = CONICAL_SURFACE ( 'NONE', #55, 0.5549999999999989386, 1.047197551196592746 ) ;
#60 =( LENGTH_UNIT ( ) NAMED_UNIT ( * ) SI_UNIT ( .MILLI., .METRE. ) );
#61 = APPROVAL_ROLE ( '' ) ;
#62 = ORIENTED_EDGE ( 'NONE', *, *, #4, .F. ) ;
#63 = CC_DESIGN_APPROVAL ( #31, ( #72 ) ) ;
#64 = EDGE_LOOP ( 'NONE', ( #220 ) ) ;
#65 = PERSON_AND_ORGANIZATION_ROLE ( 'creator' ) ;
#66 = CARTESIAN_POINT ( 'NONE',  ( 3.142333204958820651E-14, -1.102182119232617911E-15, 9.000000000000001776 ) ) ;
#67 = AXIS2_PLACEMENT_3D ( 'NONE', #159, #20, #106 ) ;
#68 = DIRECTION ( 'NONE',  ( 3.491481338843133355E-15, -1.224646799147353207E-16, 1.000000000000000000 ) ) ;
#69 = CARTESIAN_POINT ( 'NONE',  ( 3.260257954873640795E-14, -1.143544553542889311E-15, 9.337749907475931366 ) ) ;
#70 = DIRECTION ( 'NONE',  ( 4.275831445896959482E-31, 1.000000000000000000, 1.224646799147353207E-16 ) ) ;
#71 = DIRECTION ( 'NONE',  ( -3.491481338843133355E-15, 1.224646799147353207E-16, -1.000000000000000000 ) ) ;
#72 = SECURITY_CLASSIFICATION ( '', '', #115 ) ;
#73 = APPROVAL_STATUS ( 'not_yet_approved' ) ;
#74 = CARTESIAN_POINT ( 'NONE',  ( 3.142333204958820651E-14, 0.5549999999999999378, 9.000000000000001776 ) ) ;
#75 = DESIGN_CONTEXT ( 'detailed design', #177, 'design' ) ;
#76 = CIRCLE ( 'NONE', #184, 0.7499999999999975575 ) ;
#77 = PERSON_AND_ORGANIZATION_ROLE ( 'design_owner' ) ;
#78 = DIRECTION ( 'NONE',  ( 4.275831445896958607E-31, 1.000000000000000000, 1.224646799147353207E-16 ) ) ;
#79 = PERSON_AND_ORGANIZATION_ROLE ( 'design_supplier' ) ;
#80 = PLANE ( 'NONE',  #6 ) ;
#81 = EDGE_CURVE ( 'NONE', #30, #30, #181, .T. ) ;
#82 = SHAPE_DEFINITION_REPRESENTATION ( #152, #22 ) ;
#83 = DIRECTION ( 'NONE',  ( -3.491481338843133355E-15, 1.224646799147353207E-16, -1.000000000000000000 ) ) ;
#84 = EDGE_LOOP ( 'NONE', ( #155 ) ) ;
#85 = CARTESIAN_POINT ( 'NONE',  ( 1.118773268422670290E-15, -3.924128383282194633E-17, 0.3204293994002454515 ) ) ;
#86 = PRODUCT_DEFINITION ( 'UNKNOWN', '', #222, #75 ) ;
#87 = CARTESIAN_POINT ( 'NONE',  ( 3.142333204958820651E-14, -1.102182119232617911E-15, 9.000000000000001776 ) ) ;
#88 = AXIS2_PLACEMENT_3D ( 'NONE', #41, #194, #153 ) ;
#89 = DATE_TIME_ROLE ( 'creation_date' ) ;
#90 = CC_DESIGN_PERSON_AND_ORGANIZATION_ASSIGNMENT ( #47, #12, ( #86 ) ) ;
#91 = CARTESIAN_POINT ( 'NONE',  ( 1.047444401652940007E-13, 0.5499999999999963807, 30.00000000000000000 ) ) ;
#92 = EDGE_LOOP ( 'NONE', ( #158 ) ) ;
#93 = CC_DESIGN_PERSON_AND_ORGANIZATION_ASSIGNMENT ( #164, #77, ( #94 ) ) ;
#94 = PRODUCT ( '957887', '957887', '', ( #11 ) ) ;
#95 = PERSON_AND_ORGANIZATION ( #174, #169 ) ;
#96 = APPROVAL_ROLE ( '' ) ;
#97 = AXIS2_PLACEMENT_3D ( 'NONE', #146, #3, #127 ) ;
#98 = EDGE_LOOP ( 'NONE', ( #112 ) ) ;
#99 = CLOSED_SHELL ( 'NONE', ( #123, #126, #24, #107, #105 ) ) ;
#100 = FACE_BOUND ( 'NONE', #137, .T. ) ;
#101 = DATE_TIME_ROLE ( 'classification_date' ) ;
#102 = FACE_OUTER_BOUND ( 'NONE', #64, .T. ) ;
#103 = LOCAL_TIME ( 10, 12, 38.00000000000000000, #202 ) ;
#104 = DIRECTION ( 'NONE',  ( 0.0000000000000000000, 1.000000000000000000, 0.0000000000000000000 ) ) ;
#105 = ADVANCED_FACE ( 'NONE', ( #108 ), #223, .F. ) ;
#106 = DIRECTION ( 'NONE',  ( -4.275831445896958607E-31, -1.000000000000000000, -1.224646799147353207E-16 ) ) ;
#107 = ADVANCED_FACE ( 'NONE', ( #2, #5 ), #195, .T. ) ;
#108 = FACE_OUTER_BOUND ( 'NONE', #114, .T. ) ;
#109 = COORDINATED_UNIVERSAL_TIME_OFFSET ( 1, 0, .AHEAD. ) ;
#110 = COORDINATED_UNIVERSAL_TIME_OFFSET ( 1, 0, .AHEAD. ) ;
#111 = DIRECTION ( 'NONE',  ( -3.491481338843133355E-15, 1.224646799147353207E-16, -1.000000000000000000 ) ) ;
#112 = ORIENTED_EDGE ( 'NONE', *, *, #148, .F. ) ;
#113 = CC_DESIGN_SECURITY_CLASSIFICATION ( #72, ( #222 ) ) ;
#114 = EDGE_LOOP ( 'NONE', ( #116 ) ) ;
#115 = SECURITY_CLASSIFICATION_LEVEL ( 'unclassified' ) ;
#116 = ORIENTED_EDGE ( 'NONE', *, *, #81, .F. ) ;
#117 = PERSON_AND_ORGANIZATION ( #174, #169 ) ;
#118 = APPROVAL_PERSON_ORGANIZATION ( #95, #31, #96 ) ;
#119 = DIRECTION ( 'NONE',  ( 3.470144043940971932E-31, 1.000000000000000000, 9.767587139509067055E-17 ) ) ;
#120 = COORDINATED_UNIVERSAL_TIME_OFFSET ( 1, 0, .AHEAD. ) ;
#121 = DIRECTION ( 'NONE',  ( 0.0000000000000000000, 1.000000000000000000, 0.0000000000000000000 ) ) ;
#122 = CYLINDRICAL_SURFACE ( 'NONE', #124, 0.7499999999999986677 ) ;
#123 = ADVANCED_FACE ( 'NONE', ( #35 ), #80, .F. ) ;
#124 = AXIS2_PLACEMENT_3D ( 'NONE', #51, #172, #70 ) ;
#125 = ORIENTED_EDGE ( 'NONE', *, *, #132, .T. ) ;
#126 = ADVANCED_FACE ( 'NONE', ( #100, #193 ), #154, .T. ) ;
#127 = DIRECTION ( 'NONE',  ( 4.275831445896958607E-31, 1.000000000000000000, 1.224646799147353207E-16 ) ) ;
#128 = APPROVAL_ROLE ( '' ) ;
#129 = EDGE_CURVE ( 'NONE', #179, #179, #23, .T. ) ;
#130 = CARTESIAN_POINT ( 'NONE',  ( 1.118773268422670487E-15, 0.5549999999999989386, 0.3204293994002455070 ) ) ;
#131 = DATE_AND_TIME ( #201, #192 ) ;
#132 = EDGE_CURVE ( 'NONE', #43, #43, #76, .T. ) ;
#133 = APPROVAL_DATE_TIME ( #131, #49 ) ;
#134 = APPROVAL_STATUS ( 'not_yet_approved' ) ;
#135 = CC_DESIGN_PERSON_AND_ORGANIZATION_ASSIGNMENT ( #52, #16, ( #72 ) ) ;
#136 = APPROVAL_PERSON_ORGANIZATION ( #175, #49, #61 ) ;
#137 = EDGE_LOOP ( 'NONE', ( #62 ) ) ;
#138 = MANIFOLD_SOLID_BREP ( 'Corps-Déplacer/Copier1[2]', #8 ) ;
#139 = CALENDAR_DATE ( 2021, 8, 10 ) ;
#140 = ORIENTED_EDGE ( 'NONE', *, *, #132, .F. ) ;
#141 = DIRECTION ( 'NONE',  ( 0.0000000000000000000, 1.000000000000000000, 0.0000000000000000000 ) ) ;
#142 = ADVANCED_FACE ( 'NONE', ( #144 ), #59, .T. ) ;
#143 = FACE_OUTER_BOUND ( 'NONE', #17, .T. ) ;
#144 = FACE_OUTER_BOUND ( 'NONE', #13, .T. ) ;
#145 = CC_DESIGN_APPROVAL ( #49, ( #86 ) ) ;
#146 = CARTESIAN_POINT ( 'NONE',  ( 1.047444401652940007E-13, 4.124339402320052999E-33, 30.00000000000000000 ) ) ;
#147 = AXIS2_PLACEMENT_3D ( 'NONE', #7, #190, #119 ) ;
#148 = EDGE_CURVE ( 'NONE', #27, #27, #1, .T. ) ;
#149 = APPROVAL_DATE_TIME ( #25, #42 ) ;
#150 = VERTEX_POINT ( 'NONE', #130 ) ;
#151 = ORIENTED_EDGE ( 'NONE', *, *, #129, .T. ) ;
#152 = PRODUCT_DEFINITION_SHAPE ( 'NONE', 'NONE',  #86 ) ;
#153 = DIRECTION ( 'NONE',  ( 1.000000000000000000, 0.0000000000000000000, 0.0000000000000000000 ) ) ;
#154 = CONICAL_SURFACE ( 'NONE', #176, 0.7499999999999975575, 0.5235987755982931535 ) ;
#155 = ORIENTED_EDGE ( 'NONE', *, *, #129, .F. ) ;
#156 = APPROVAL_STATUS ( 'not_yet_approved' ) ;
#157 = DIRECTION ( 'NONE',  ( 3.491481338843133355E-15, -1.224646799147353207E-16, 1.000000000000000000 ) ) ;
#158 = ORIENTED_EDGE ( 'NONE', *, *, #148, .T. ) ;
#159 = CARTESIAN_POINT ( 'NONE',  ( 3.142333204958820651E-14, -2.082805218291900959E-31, 9.000000000000001776 ) ) ;
#160 = FACE_OUTER_BOUND ( 'NONE', #44, .T. ) ;
#161 = ORIENTED_EDGE ( 'NONE', *, *, #81, .T. ) ;
#162 = LOCAL_TIME ( 10, 12, 38.00000000000000000, #120 ) ;
#163 = LOCAL_TIME ( 10, 12, 38.00000000000000000, #199 ) ;
#164 = PERSON_AND_ORGANIZATION ( #174, #169 ) ;
#165 =( NAMED_UNIT ( * ) PLANE_ANGLE_UNIT ( ) SI_UNIT ( $, .RADIAN. ) );
#166 = CALENDAR_DATE ( 2021, 8, 10 ) ;
#167 = CARTESIAN_POINT ( 'NONE',  ( 3.260257954873640795E-14, -1.143544553542889311E-15, 9.337749907475931366 ) ) ;
#168 = DATE_AND_TIME ( #166, #162 ) ;
#169 = ORGANIZATION ( 'UNSPECIFIED', 'UNSPECIFIED', '' ) ;
#170 = DIRECTION ( 'NONE',  ( 0.0000000000000000000, 1.000000000000000000, 0.0000000000000000000 ) ) ;
#171 = FACE_OUTER_BOUND ( 'NONE', #84, .T. ) ;
#172 = DIRECTION ( 'NONE',  ( -3.491481338843133355E-15, 1.224646799147353207E-16, -1.000000000000000000 ) ) ;
#173 = APPROVAL_PERSON_ORGANIZATION ( #10, #42, #128 ) ;
#174 = PERSON ( 'UNSPECIFIED', 'UNSPECIFIED', 'UNSPECIFIED', ('UNSPECIFIED'), ('UNSPECIFIED'), ('UNSPECIFIED') ) ;
#175 = PERSON_AND_ORGANIZATION ( #174, #169 ) ;
#176 = AXIS2_PLACEMENT_3D ( 'NONE', #69, #56, #38 ) ;
#177 = APPLICATION_CONTEXT ( 'configuration controlled 3d designs of mechanical parts and assemblies' ) ;
#178 = CALENDAR_DATE ( 2021, 8, 10 ) ;
#179 = VERTEX_POINT ( 'NONE', #74 ) ;
#180 = CARTESIAN_POINT ( 'NONE',  ( 3.260257954873640795E-14, 0.7499999999999963363, 9.337749907475931366 ) ) ;
#181 = CIRCLE ( 'NONE', #29, 0.5500000000000000444 ) ;
#182 = VERTEX_POINT ( 'NONE', #198 ) ;
#183 = UNCERTAINTY_MEASURE_WITH_UNIT (LENGTH_MEASURE( 1.000000000000000082E-05 ), #60, 'distance_accuracy_value', 'NONE');
#184 = AXIS2_PLACEMENT_3D ( 'NONE', #167, #83, #206 ) ;
#185 = AXIS2_PLACEMENT_3D ( 'NONE', #87, #36, #104 ) ;
#186 = DIRECTION ( 'NONE',  ( -3.491481338843133355E-15, 1.224646799147353207E-16, -1.000000000000000000 ) ) ;
#187 = DATE_AND_TIME ( #139, #103 ) ;
#188 = DIRECTION ( 'NONE',  ( 0.0000000000000000000, 1.000000000000000000, 0.0000000000000000000 ) ) ;
#189 = CIRCLE ( 'NONE', #147, 0.5549999999999989386 ) ;
#190 = DIRECTION ( 'NONE',  ( -3.491481338843133355E-15, 1.224646799147353207E-16, -1.000000000000000000 ) ) ;
#191 = DIRECTION ( 'NONE',  ( -3.491481338843133355E-15, 1.224646799147353207E-16, -1.000000000000000000 ) ) ;
#192 = LOCAL_TIME ( 10, 12, 38.00000000000000000, #110 ) ;
#193 = FACE_OUTER_BOUND ( 'NONE', #203, .T. ) ;
#194 = DIRECTION ( 'NONE',  ( 0.0000000000000000000, 0.0000000000000000000, 1.000000000000000000 ) ) ;
#195 = CONICAL_SURFACE ( 'NONE', #208, 0.5500000000000000444, 0.7853981633974512766 ) ;
#196 = CC_DESIGN_DATE_AND_TIME_ASSIGNMENT ( #45, #89, ( #86 ) ) ;
#197 = CC_DESIGN_PERSON_AND_ORGANIZATION_ASSIGNMENT ( #117, #79, ( #222 ) ) ;
#198 = CARTESIAN_POINT ( 'NONE',  ( 3.142333204958820651E-14, 0.5549999999999999378, 9.000000000000001776 ) ) ;
#199 = COORDINATED_UNIVERSAL_TIME_OFFSET ( 1, 0, .AHEAD. ) ;
#200 = EDGE_LOOP ( 'NONE', ( #221 ) ) ;
#201 = CALENDAR_DATE ( 2021, 8, 10 ) ;
#202 = COORDINATED_UNIVERSAL_TIME_OFFSET ( 1, 0, .AHEAD. ) ;
#203 = EDGE_LOOP ( 'NONE', ( #125 ) ) ;
#204 = LOCAL_TIME ( 10, 12, 38.00000000000000000, #109 ) ;
#205 = PLANE ( 'NONE',  #67 ) ;
#206 = DIRECTION ( 'NONE',  ( 0.0000000000000000000, 1.000000000000000000, 0.0000000000000000000 ) ) ;
#207 = FACE_OUTER_BOUND ( 'NONE', #92, .T. ) ;
#208 = AXIS2_PLACEMENT_3D ( 'NONE', #19, #186, #121 ) ;
#209 = DIRECTION ( 'NONE',  ( -3.470144043940971932E-31, -1.000000000000000000, -9.767587139509067055E-17 ) ) ;
#210 = ADVANCED_FACE ( 'NONE', ( #102, #160 ), #58, .T. ) ;
#211 = CARTESIAN_POINT ( 'NONE',  ( 1.047444401652940007E-13, -3.673940397442059178E-15, 30.00000000000000000 ) ) ;
#212 = CC_DESIGN_DATE_AND_TIME_ASSIGNMENT ( #168, #101, ( #72 ) ) ;
#213 = AXIS2_PLACEMENT_3D ( 'NONE', #53, #191, #188 ) ;
#214 = CARTESIAN_POINT ( 'NONE',  ( 0.0000000000000000000, 0.0000000000000000000, 0.0000000000000000000 ) ) ;
#215 = PERSON_AND_ORGANIZATION ( #174, #169 ) ;
#216 = PRODUCT_RELATED_PRODUCT_CATEGORY ( 'detail', '', ( #94 ) ) ;
#217 = AXIS2_PLACEMENT_3D ( 'NONE', #214, #111, #78 ) ;
#218 =( NAMED_UNIT ( * ) SI_UNIT ( $, .STERADIAN. ) SOLID_ANGLE_UNIT ( ) );
#219 = APPLICATION_PROTOCOL_DEFINITION ( 'international standard', 'config_control_design', 1994, #177 ) ;
#220 = ORIENTED_EDGE ( 'NONE', *, *, #28, .F. ) ;
#221 = ORIENTED_EDGE ( 'NONE', *, *, #4, .T. ) ;
#222 = PRODUCT_DEFINITION_FORMATION_WITH_SPECIFIED_SOURCE ( 'ANY', '', #94, .NOT_KNOWN. ) ;
#223 = PLANE ( 'NONE',  #97 ) ;
ENDSEC;
END-ISO-10303-21;
