ISO-10303-21;
HEADER;
FILE_DESCRIPTION (( 'STEP AP203' ),
    '1' );
FILE_NAME ('957884.step',
    '2021-10-08T08:12:38',
    ( '' ),
    ( '' ),
    'SwSTEP 2.0',
    'SolidWorks 2019',
    '' );
FILE_SCHEMA (( 'CONFIG_CONTROL_DESIGN' ));
ENDSEC;

DATA;
#1 = DIRECTION ( 'NONE',  ( 4.275831445896958607E-31, 1.000000000000000000, 1.224646799147353207E-16 ) ) ;
#2 = APPROVAL_ROLE ( '' ) ;
#3 = CIRCLE ( 'NONE', #180, 0.7500000000000000000 ) ;
#4 = CC_DESIGN_PERSON_AND_ORGANIZATION_ASSIGNMENT ( #118, #25, ( #207 ) ) ;
#5 = EDGE_LOOP ( 'NONE', ( #145 ) ) ;
#6 = VERTEX_POINT ( 'NONE', #82 ) ;
#7 = CARTESIAN_POINT ( 'NONE',  ( 1.047444401652940007E-13, -3.673940397442059178E-15, 30.00000000000000000 ) ) ;
#8 = DATE_AND_TIME ( #173, #125 ) ;
#9 = DATE_TIME_ROLE ( 'classification_date' ) ;
#10 = ADVANCED_FACE ( 'NONE', ( #120, #200 ), #185, .T. ) ;
#11 = PLANE ( 'NONE',  #83 ) ;
#12 = CC_DESIGN_APPROVAL ( #193, ( #207 ) ) ;
#13 = CIRCLE ( 'NONE', #197, 0.5399999999999994804 ) ;
#14 = APPLICATION_PROTOCOL_DEFINITION ( 'international standard', 'config_control_design', 1994, #43 ) ;
#15 = DIRECTION ( 'NONE',  ( -3.491481338843133355E-15, 1.224646799147353207E-16, -1.000000000000000000 ) ) ;
#16 = ADVANCED_FACE ( 'NONE', ( #28, #31 ), #188, .T. ) ;
#17 = CLOSED_SHELL ( 'NONE', ( #73, #151, #165 ) ) ;
#18 = ORIENTED_EDGE ( 'NONE', *, *, #22, .F. ) ;
#19 = AXIS2_PLACEMENT_3D ( 'NONE', #148, #142, #24 ) ;
#20 = CC_DESIGN_APPROVAL ( #140, ( #198 ) ) ;
#21 = DIRECTION ( 'NONE',  ( 3.566536934050443982E-31, 1.000000000000000000, 1.003890900449543174E-16 ) ) ;
#22 = EDGE_CURVE ( 'NONE', #154, #154, #3, .T. ) ;
#23 = DIRECTION ( 'NONE',  ( -3.491481338843133355E-15, 1.224646799147353207E-16, -1.000000000000000000 ) ) ;
#24 = DIRECTION ( 'NONE',  ( -4.275831445896958607E-31, -1.000000000000000000, -1.224646799147353207E-16 ) ) ;
#25 = PERSON_AND_ORGANIZATION_ROLE ( 'classification_officer' ) ;
#26 = CARTESIAN_POINT ( 'NONE',  ( 1.047444401652940007E-13, -3.673940397442059178E-15, 30.00000000000000000 ) ) ;
#27 =( LENGTH_UNIT ( ) NAMED_UNIT ( * ) SI_UNIT ( .MILLI., .METRE. ) );
#28 = FACE_BOUND ( 'NONE', #141, .T. ) ;
#29 = CALENDAR_DATE ( 2021, 8, 10 ) ;
#30 = AXIS2_PLACEMENT_3D ( 'NONE', #143, #71, #128 ) ;
#31 = FACE_OUTER_BOUND ( 'NONE', #72, .T. ) ;
#32 = APPROVAL_DATE_TIME ( #205, #193 ) ;
#33 = PERSON_AND_ORGANIZATION ( #62, #150 ) ;
#34 = DIRECTION ( 'NONE',  ( 0.0000000000000000000, 1.000000000000000000, 0.0000000000000000000 ) ) ;
#35 = SHAPE_DEFINITION_REPRESENTATION ( #171, #52 ) ;
#36 = DIRECTION ( 'NONE',  ( 0.0000000000000000000, 0.0000000000000000000, 1.000000000000000000 ) ) ;
#37 = APPROVAL ( #130, 'UNSPECIFIED' ) ;
#38 = PRODUCT_RELATED_PRODUCT_CATEGORY ( 'detail', '', ( #92 ) ) ;
#39 = ADVANCED_FACE ( 'NONE', ( #98, #158 ), #58, .T. ) ;
#40 = PLANE ( 'NONE',  #19 ) ;
#41 = APPLICATION_CONTEXT ( 'configuration controlled 3d designs of mechanical parts and assemblies' ) ;
#42 = DIRECTION ( 'NONE',  ( -3.491481338843133355E-15, 1.224646799147353207E-16, -1.000000000000000000 ) ) ;
#43 = APPLICATION_CONTEXT ( 'configuration controlled 3d designs of mechanical parts and assemblies' ) ;
#44 = APPROVAL_PERSON_ORGANIZATION ( #122, #37, #79 ) ;
#45 = UNCERTAINTY_MEASURE_WITH_UNIT (LENGTH_MEASURE( 1.000000000000000082E-05 ), #27, 'distance_accuracy_value', 'NONE');
#46 = EDGE_LOOP ( 'NONE', ( #166 ) ) ;
#47 = FACE_OUTER_BOUND ( 'NONE', #46, .T. ) ;
#48 = PERSON_AND_ORGANIZATION_ROLE ( 'design_supplier' ) ;
#49 = DESIGN_CONTEXT ( 'detailed design', #41, 'design' ) ;
#50 = CARTESIAN_POINT ( 'NONE',  ( 3.269329089482473308E-14, -1.146726279259063852E-15, 9.363730669589465094 ) ) ;
#51 = DIRECTION ( 'NONE',  ( -4.275831445896958607E-31, -1.000000000000000000, -1.224646799147353207E-16 ) ) ;
#52 = ADVANCED_BREP_SHAPE_REPRESENTATION ( '957884', ( #64, #63, #126 ), #97 ) ;
#53 = ADVANCED_FACE ( 'NONE', ( #187 ), #136, .F. ) ;
#54 = CARTESIAN_POINT ( 'NONE',  ( 3.142333204958820020E-14, -1.102182119232617714E-15, 9.000000000000000000 ) ) ;
#55 = COORDINATED_UNIVERSAL_TIME_OFFSET ( 1, 0, .AHEAD. ) ;
#56 = LOCAL_TIME ( 10, 12, 38.00000000000000000, #184 ) ;
#57 = AXIS2_PLACEMENT_3D ( 'NONE', #168, #89, #172 ) ;
#58 = CONICAL_SURFACE ( 'NONE', #87, 0.5500000000000000444, 0.7853981633974512766 ) ;
#59 = CC_DESIGN_PERSON_AND_ORGANIZATION_ASSIGNMENT ( #123, #223, ( #92 ) ) ;
#60 = ORIENTED_EDGE ( 'NONE', *, *, #144, .T. ) ;
#61 = CARTESIAN_POINT ( 'NONE',  ( 1.088536153059894655E-15, -3.818070859409700072E-17, 0.3117691453624008013 ) ) ;
#62 = PERSON ( 'UNSPECIFIED', 'UNSPECIFIED', 'UNSPECIFIED', ('UNSPECIFIED'), ('UNSPECIFIED'), ('UNSPECIFIED') ) ;
#63 = MANIFOLD_SOLID_BREP ( 'Corps-Déplacer/Copier1[2]', #17 ) ;
#64 = MANIFOLD_SOLID_BREP ( 'Corps-Déplacer/Copier1[1]', #211 ) ;
#65 = PRODUCT_DEFINITION_FORMATION_WITH_SPECIFIED_SOURCE ( 'ANY', '', #92, .NOT_KNOWN. ) ;
#66 = COORDINATED_UNIVERSAL_TIME_OFFSET ( 1, 0, .AHEAD. ) ;
#67 = EDGE_CURVE ( 'NONE', #6, #6, #209, .T. ) ;
#68 = APPROVAL_DATE_TIME ( #8, #140 ) ;
#69 = CARTESIAN_POINT ( 'NONE',  ( 3.142333204958820020E-14, -1.102182119232617714E-15, 9.000000000000000000 ) ) ;
#70 = APPROVAL_STATUS ( 'not_yet_approved' ) ;
#71 = DIRECTION ( 'NONE',  ( -3.491481338843133355E-15, 1.224646799147353207E-16, -1.000000000000000000 ) ) ;
#72 = EDGE_LOOP ( 'NONE', ( #86 ) ) ;
#73 = ADVANCED_FACE ( 'NONE', ( #110 ), #174, .T. ) ;
#74 = EDGE_LOOP ( 'NONE', ( #204 ) ) ;
#75 = AXIS2_PLACEMENT_3D ( 'NONE', #146, #23, #115 ) ;
#76 = APPROVAL_PERSON_ORGANIZATION ( #147, #193, #133 ) ;
#77 = CARTESIAN_POINT ( 'NONE',  ( 1.088536153059894852E-15, 0.5399999999999989253, 0.3117691453624008568 ) ) ;
#78 = DIRECTION ( 'NONE',  ( 3.491481338843133355E-15, -1.224646799147353207E-16, 1.000000000000000000 ) ) ;
#79 = APPROVAL_ROLE ( '' ) ;
#80 = CARTESIAN_POINT ( 'NONE',  ( 3.142333204958820020E-14, 4.049351413186995151E-33, 9.000000000000000000 ) ) ;
#81 = SECURITY_CLASSIFICATION_LEVEL ( 'unclassified' ) ;
#82 = CARTESIAN_POINT ( 'NONE',  ( 3.142333204958820020E-14, 0.5399999999999983702, 9.000000000000000000 ) ) ;
#83 = AXIS2_PLACEMENT_3D ( 'NONE', #80, #95, #51 ) ;
#84 = EDGE_LOOP ( 'NONE', ( #114 ) ) ;
#85 = CC_DESIGN_DATE_AND_TIME_ASSIGNMENT ( #135, #9, ( #207 ) ) ;
#86 = ORIENTED_EDGE ( 'NONE', *, *, #138, .T. ) ;
#87 = AXIS2_PLACEMENT_3D ( 'NONE', #7, #106, #161 ) ;
#88 = PERSON_AND_ORGANIZATION ( #62, #150 ) ;
#89 = DIRECTION ( 'NONE',  ( 3.491481338843133355E-15, -1.224646799147353207E-16, 1.000000000000000000 ) ) ;
#90 = DIRECTION ( 'NONE',  ( 1.000000000000000000, 0.0000000000000000000, 0.0000000000000000000 ) ) ;
#91 = DIRECTION ( 'NONE',  ( -3.491481338843133355E-15, 1.224646799147353207E-16, -1.000000000000000000 ) ) ;
#92 = PRODUCT ( '957884', '957884', '', ( #222 ) ) ;
#93 = CARTESIAN_POINT ( 'NONE',  ( 1.047444401652940007E-13, 0.5499999999999963807, 30.00000000000000000 ) ) ;
#94 = DIRECTION ( 'NONE',  ( 4.275831445896958607E-31, 1.000000000000000000, 1.224646799147353207E-16 ) ) ;
#95 = DIRECTION ( 'NONE',  ( 3.491481338843133355E-15, -1.224646799147353207E-16, 1.000000000000000000 ) ) ;
#96 = EDGE_CURVE ( 'NONE', #131, #131, #13, .T. ) ;
#97 =( GEOMETRIC_REPRESENTATION_CONTEXT ( 3 ) GLOBAL_UNCERTAINTY_ASSIGNED_CONTEXT ( ( #45 ) ) GLOBAL_UNIT_ASSIGNED_CONTEXT ( ( #27, #101, #105 ) ) REPRESENTATION_CONTEXT ( 'NONE', 'WORKASPACE' ) );
#98 = FACE_OUTER_BOUND ( 'NONE', #181, .T. ) ;
#99 = PERSON_AND_ORGANIZATION_ROLE ( 'creator' ) ;
#100 = CYLINDRICAL_SURFACE ( 'NONE', #113, 0.5399999999999992584 ) ;
#101 =( NAMED_UNIT ( * ) PLANE_ANGLE_UNIT ( ) SI_UNIT ( $, .RADIAN. ) );
#102 = DIRECTION ( 'NONE',  ( -3.491481338843133355E-15, 1.224646799147353207E-16, -1.000000000000000000 ) ) ;
#103 = COORDINATED_UNIVERSAL_TIME_OFFSET ( 1, 0, .AHEAD. ) ;
#104 = FACE_OUTER_BOUND ( 'NONE', #5, .T. ) ;
#105 =( NAMED_UNIT ( * ) SI_UNIT ( $, .STERADIAN. ) SOLID_ANGLE_UNIT ( ) );
#106 = DIRECTION ( 'NONE',  ( -3.491481338843133355E-15, 1.224646799147353207E-16, -1.000000000000000000 ) ) ;
#107 = ORIENTED_EDGE ( 'NONE', *, *, #208, .T. ) ;
#108 = PERSON_AND_ORGANIZATION_ROLE ( 'creator' ) ;
#109 = CIRCLE ( 'NONE', #30, 0.7499999999999975575 ) ;
#110 = FACE_OUTER_BOUND ( 'NONE', #112, .T. ) ;
#111 = COORDINATED_UNIVERSAL_TIME_OFFSET ( 1, 0, .AHEAD. ) ;
#112 = EDGE_LOOP ( 'NONE', ( #107 ) ) ;
#113 = AXIS2_PLACEMENT_3D ( 'NONE', #164, #195, #94 ) ;
#114 = ORIENTED_EDGE ( 'NONE', *, *, #22, .T. ) ;
#115 = DIRECTION ( 'NONE',  ( 4.275831445896959482E-31, 1.000000000000000000, 1.224646799147353207E-16 ) ) ;
#116 = VERTEX_POINT ( 'NONE', #77 ) ;
#117 = DIRECTION ( 'NONE',  ( 0.0000000000000000000, -1.000000000000000000, 0.0000000000000000000 ) ) ;
#118 = PERSON_AND_ORGANIZATION ( #62, #150 ) ;
#119 = DIRECTION ( 'NONE',  ( -3.491481338843133355E-15, 1.224646799147353207E-16, -1.000000000000000000 ) ) ;
#120 = FACE_OUTER_BOUND ( 'NONE', #179, .T. ) ;
#121 = CALENDAR_DATE ( 2021, 8, 10 ) ;
#122 = PERSON_AND_ORGANIZATION ( #62, #150 ) ;
#123 = PERSON_AND_ORGANIZATION ( #62, #150 ) ;
#124 = PERSON_AND_ORGANIZATION ( #62, #150 ) ;
#125 = LOCAL_TIME ( 10, 12, 38.00000000000000000, #111 ) ;
#126 = AXIS2_PLACEMENT_3D ( 'NONE', #189, #36, #90 ) ;
#127 = VERTEX_POINT ( 'NONE', #93 ) ;
#128 = DIRECTION ( 'NONE',  ( 0.0000000000000000000, 1.000000000000000000, 0.0000000000000000000 ) ) ;
#129 = ORIENTED_EDGE ( 'NONE', *, *, #138, .F. ) ;
#130 = APPROVAL_STATUS ( 'not_yet_approved' ) ;
#131 = VERTEX_POINT ( 'NONE', #160 ) ;
#132 = EDGE_LOOP ( 'NONE', ( #215 ) ) ;
#133 = APPROVAL_ROLE ( '' ) ;
#134 = DIRECTION ( 'NONE',  ( -3.491481338843133355E-15, 1.224646799147353207E-16, -1.000000000000000000 ) ) ;
#135 = DATE_AND_TIME ( #219, #163 ) ;
#136 = PLANE ( 'NONE',  #175 ) ;
#137 = DATE_TIME_ROLE ( 'creation_date' ) ;
#138 = EDGE_CURVE ( 'NONE', #203, #203, #109, .T. ) ;
#139 = CC_DESIGN_SECURITY_CLASSIFICATION ( #207, ( #65 ) ) ;
#140 = APPROVAL ( #170, 'UNSPECIFIED' ) ;
#141 = EDGE_LOOP ( 'NONE', ( #194 ) ) ;
#142 = DIRECTION ( 'NONE',  ( 3.491481338843133355E-15, -1.224646799147353207E-16, 1.000000000000000000 ) ) ;
#143 = CARTESIAN_POINT ( 'NONE',  ( 3.269329089482473308E-14, -1.146726279259063852E-15, 9.363730669589465094 ) ) ;
#144 = EDGE_CURVE ( 'NONE', #127, #127, #152, .T. ) ;
#145 = ORIENTED_EDGE ( 'NONE', *, *, #67, .T. ) ;
#146 = CARTESIAN_POINT ( 'NONE',  ( 0.0000000000000000000, 0.0000000000000000000, 0.0000000000000000000 ) ) ;
#147 = PERSON_AND_ORGANIZATION ( #62, #150 ) ;
#148 = CARTESIAN_POINT ( 'NONE',  ( 3.142333204958820020E-14, 4.049351413186995151E-33, 9.000000000000000000 ) ) ;
#149 = CC_DESIGN_PERSON_AND_ORGANIZATION_ASSIGNMENT ( #88, #48, ( #65 ) ) ;
#150 = ORGANIZATION ( 'UNSPECIFIED', 'UNSPECIFIED', '' ) ;
#151 = ADVANCED_FACE ( 'NONE', ( #182, #104 ), #100, .T. ) ;
#152 = CIRCLE ( 'NONE', #190, 0.5500000000000000444 ) ;
#153 = CC_DESIGN_APPROVAL ( #37, ( #65 ) ) ;
#154 = VERTEX_POINT ( 'NONE', #155 ) ;
#155 = CARTESIAN_POINT ( 'NONE',  ( 1.040461438975253740E-13, 0.7499999999999963363, 29.80000000000000071 ) ) ;
#156 = CC_DESIGN_DATE_AND_TIME_ASSIGNMENT ( #221, #137, ( #198 ) ) ;
#157 = EDGE_LOOP ( 'NONE', ( #220 ) ) ;
#158 = FACE_BOUND ( 'NONE', #212, .T. ) ;
#159 = CALENDAR_DATE ( 2021, 8, 10 ) ;
#160 = CARTESIAN_POINT ( 'NONE',  ( 3.142333204958820020E-14, 0.5399999999999983702, 9.000000000000000000 ) ) ;
#161 = DIRECTION ( 'NONE',  ( 0.0000000000000000000, 1.000000000000000000, 0.0000000000000000000 ) ) ;
#162 = FACE_OUTER_BOUND ( 'NONE', #157, .T. ) ;
#163 = LOCAL_TIME ( 10, 12, 38.00000000000000000, #103 ) ;
#164 = CARTESIAN_POINT ( 'NONE',  ( 0.0000000000000000000, 0.0000000000000000000, 0.0000000000000000000 ) ) ;
#165 = ADVANCED_FACE ( 'NONE', ( #47 ), #40, .T. ) ;
#166 = ORIENTED_EDGE ( 'NONE', *, *, #67, .F. ) ;
#167 = DATE_AND_TIME ( #121, #186 ) ;
#168 = CARTESIAN_POINT ( 'NONE',  ( 1.088536153059894655E-15, -3.818070859409700072E-17, 0.3117691453624008013 ) ) ;
#169 = CARTESIAN_POINT ( 'NONE',  ( 1.047444401652940007E-13, 4.124339402320052999E-33, 30.00000000000000000 ) ) ;
#170 = APPROVAL_STATUS ( 'not_yet_approved' ) ;
#171 = PRODUCT_DEFINITION_SHAPE ( 'NONE', 'NONE',  #198 ) ;
#172 = DIRECTION ( 'NONE',  ( -3.566536934050443982E-31, -1.000000000000000000, -1.003890900449543174E-16 ) ) ;
#173 = CALENDAR_DATE ( 2021, 8, 10 ) ;
#174 = CONICAL_SURFACE ( 'NONE', #57, 0.5399999999999989253, 1.047197551196592746 ) ;
#175 = AXIS2_PLACEMENT_3D ( 'NONE', #169, #91, #1 ) ;
#176 = CIRCLE ( 'NONE', #196, 0.5399999999999989253 ) ;
#177 = DIRECTION ( 'NONE',  ( 0.0000000000000000000, 1.000000000000000000, 0.0000000000000000000 ) ) ;
#178 = CC_DESIGN_PERSON_AND_ORGANIZATION_ASSIGNMENT ( #206, #108, ( #65 ) ) ;
#179 = EDGE_LOOP ( 'NONE', ( #129 ) ) ;
#180 = AXIS2_PLACEMENT_3D ( 'NONE', #217, #102, #183 ) ;
#181 = EDGE_LOOP ( 'NONE', ( #18 ) ) ;
#182 = FACE_OUTER_BOUND ( 'NONE', #132, .T. ) ;
#183 = DIRECTION ( 'NONE',  ( 0.0000000000000000000, 1.000000000000000000, 0.0000000000000000000 ) ) ;
#184 = COORDINATED_UNIVERSAL_TIME_OFFSET ( 1, 0, .AHEAD. ) ;
#185 = CYLINDRICAL_SURFACE ( 'NONE', #75, 0.7499999999999986677 ) ;
#186 = LOCAL_TIME ( 10, 12, 38.00000000000000000, #66 ) ;
#187 = FACE_OUTER_BOUND ( 'NONE', #74, .T. ) ;
#188 = CONICAL_SURFACE ( 'NONE', #214, 0.7499999999999975575, 0.5235987755982938197 ) ;
#189 = CARTESIAN_POINT ( 'NONE',  ( 0.0000000000000000000, 0.0000000000000000000, 0.0000000000000000000 ) ) ;
#190 = AXIS2_PLACEMENT_3D ( 'NONE', #26, #42, #199 ) ;
#191 = AXIS2_PLACEMENT_3D ( 'NONE', #54, #15, #34 ) ;
#192 = APPLICATION_PROTOCOL_DEFINITION ( 'international standard', 'config_control_design', 1994, #41 ) ;
#193 = APPROVAL ( #70, 'UNSPECIFIED' ) ;
#194 = ORIENTED_EDGE ( 'NONE', *, *, #96, .F. ) ;
#195 = DIRECTION ( 'NONE',  ( -3.491481338843133355E-15, 1.224646799147353207E-16, -1.000000000000000000 ) ) ;
#196 = AXIS2_PLACEMENT_3D ( 'NONE', #61, #134, #21 ) ;
#197 = AXIS2_PLACEMENT_3D ( 'NONE', #69, #119, #177 ) ;
#198 = PRODUCT_DEFINITION ( 'UNKNOWN', '', #65, #49 ) ;
#199 = DIRECTION ( 'NONE',  ( 0.0000000000000000000, 1.000000000000000000, 0.0000000000000000000 ) ) ;
#200 = FACE_OUTER_BOUND ( 'NONE', #84, .T. ) ;
#201 = APPROVAL_PERSON_ORGANIZATION ( #124, #140, #2 ) ;
#202 = APPROVAL_DATE_TIME ( #167, #37 ) ;
#203 = VERTEX_POINT ( 'NONE', #216 ) ;
#204 = ORIENTED_EDGE ( 'NONE', *, *, #144, .F. ) ;
#205 = DATE_AND_TIME ( #29, #56 ) ;
#206 = PERSON_AND_ORGANIZATION ( #62, #150 ) ;
#207 = SECURITY_CLASSIFICATION ( '', '', #81 ) ;
#208 = EDGE_CURVE ( 'NONE', #116, #116, #176, .T. ) ;
#209 = CIRCLE ( 'NONE', #191, 0.5399999999999994804 ) ;
#210 = CC_DESIGN_PERSON_AND_ORGANIZATION_ASSIGNMENT ( #33, #99, ( #198 ) ) ;
#211 = CLOSED_SHELL ( 'NONE', ( #213, #16, #10, #39, #53 ) ) ;
#212 = EDGE_LOOP ( 'NONE', ( #60 ) ) ;
#213 = ADVANCED_FACE ( 'NONE', ( #162 ), #11, .F. ) ;
#214 = AXIS2_PLACEMENT_3D ( 'NONE', #50, #78, #117 ) ;
#215 = ORIENTED_EDGE ( 'NONE', *, *, #208, .F. ) ;
#216 = CARTESIAN_POINT ( 'NONE',  ( 3.269329089482473308E-14, 0.7499999999999963363, 9.363730669589465094 ) ) ;
#217 = CARTESIAN_POINT ( 'NONE',  ( 1.040461438975253740E-13, -3.649447461459112464E-15, 29.80000000000000071 ) ) ;
#218 = LOCAL_TIME ( 10, 12, 38.00000000000000000, #55 ) ;
#219 = CALENDAR_DATE ( 2021, 8, 10 ) ;
#220 = ORIENTED_EDGE ( 'NONE', *, *, #96, .T. ) ;
#221 = DATE_AND_TIME ( #159, #218 ) ;
#222 = MECHANICAL_CONTEXT ( 'NONE', #43, 'mechanical' ) ;
#223 = PERSON_AND_ORGANIZATION_ROLE ( 'design_owner' ) ;
ENDSEC;
END-ISO-10303-21;
