ISO-10303-21;
HEADER;
FILE_DESCRIPTION (( 'STEP AP203' ),
    '1' );
FILE_NAME ('957879.step',
    '2021-10-08T08:12:37',
    ( '' ),
    ( '' ),
    'SwSTEP 2.0',
    'SolidWorks 2019',
    '' );
FILE_SCHEMA (( 'CONFIG_CONTROL_DESIGN' ));
ENDSEC;

DATA;
#1 = PERSON_AND_ORGANIZATION ( #18, #210 ) ;
#2 = ORIENTED_EDGE ( 'NONE', *, *, #115, .F. ) ;
#3 = EDGE_LOOP ( 'NONE', ( #179 ) ) ;
#4 = VERTEX_POINT ( 'NONE', #105 ) ;
#5 = FACE_OUTER_BOUND ( 'NONE', #22, .T. ) ;
#6 = CC_DESIGN_DATE_AND_TIME_ASSIGNMENT ( #111, #205, ( #135 ) ) ;
#7 = DIRECTION ( 'NONE',  ( -3.491481338843133355E-15, 1.224646799147353207E-16, -1.000000000000000000 ) ) ;
#8 = PERSON_AND_ORGANIZATION_ROLE ( 'design_owner' ) ;
#9 = LOCAL_TIME ( 10, 12, 37.00000000000000000, #171 ) ;
#10 = CYLINDRICAL_SURFACE ( 'NONE', #12, 0.7499999999999986677 ) ;
#11 = SECURITY_CLASSIFICATION_LEVEL ( 'unclassified' ) ;
#12 = AXIS2_PLACEMENT_3D ( 'NONE', #73, #76, #44 ) ;
#13 = SECURITY_CLASSIFICATION ( '', '', #11 ) ;
#14 = ADVANCED_FACE ( 'NONE', ( #19, #154 ), #51, .T. ) ;
#15 = CALENDAR_DATE ( 2021, 8, 10 ) ;
#16 = APPROVAL_PERSON_ORGANIZATION ( #74, #172, #145 ) ;
#17 = EDGE_CURVE ( 'NONE', #59, #59, #64, .T. ) ;
#18 = PERSON ( 'UNSPECIFIED', 'UNSPECIFIED', 'UNSPECIFIED', ('UNSPECIFIED'), ('UNSPECIFIED'), ('UNSPECIFIED') ) ;
#19 = FACE_BOUND ( 'NONE', #119, .T. ) ;
#20 = LOCAL_TIME ( 10, 12, 37.00000000000000000, #91 ) ;
#21 = ORIENTED_EDGE ( 'NONE', *, *, #177, .T. ) ;
#22 = EDGE_LOOP ( 'NONE', ( #21 ) ) ;
#23 = DIRECTION ( 'NONE',  ( 0.0000000000000000000, -1.000000000000000000, 0.0000000000000000000 ) ) ;
#24 = CIRCLE ( 'NONE', #149, 0.5349999999999996980 ) ;
#25 = FACE_OUTER_BOUND ( 'NONE', #102, .T. ) ;
#26 = CARTESIAN_POINT ( 'NONE',  ( 1.047444401652940007E-13, -3.673940397442059178E-15, 30.00000000000000000 ) ) ;
#27 = APPROVAL_ROLE ( '' ) ;
#28 = CC_DESIGN_SECURITY_CLASSIFICATION ( #13, ( #192 ) ) ;
#29 = CARTESIAN_POINT ( 'NONE',  ( 3.142333204958820020E-14, 4.011857418620450490E-33, 9.000000000000000000 ) ) ;
#30 = FACE_OUTER_BOUND ( 'NONE', #101, .T. ) ;
#31 = APPROVAL_DATE_TIME ( #124, #172 ) ;
#32 = CALENDAR_DATE ( 2021, 8, 10 ) ;
#33 = APPROVAL_STATUS ( 'not_yet_approved' ) ;
#34 = CARTESIAN_POINT ( 'NONE',  ( 1.040461438975253740E-13, 0.7499999999999963363, 29.80000000000000071 ) ) ;
#35 = CC_DESIGN_PERSON_AND_ORGANIZATION_ASSIGNMENT ( #48, #81, ( #13 ) ) ;
#36 = AXIS2_PLACEMENT_3D ( 'NONE', #29, #183, #144 ) ;
#37 = ADVANCED_FACE ( 'NONE', ( #218, #62 ), #10, .T. ) ;
#38 = UNCERTAINTY_MEASURE_WITH_UNIT (LENGTH_MEASURE( 1.000000000000000082E-05 ), #54, 'distance_accuracy_value', 'NONE');
#39 = EDGE_LOOP ( 'NONE', ( #67 ) ) ;
#40 = CARTESIAN_POINT ( 'NONE',  ( 1.078457114605636899E-15, 0.5349999999999989209, 0.3088823940164527881 ) ) ;
#41 = VERTEX_POINT ( 'NONE', #157 ) ;
#42 = CARTESIAN_POINT ( 'NONE',  ( 3.142333204958820020E-14, -1.102182119232617714E-15, 9.000000000000000000 ) ) ;
#43 = DIRECTION ( 'NONE',  ( 0.0000000000000000000, 1.000000000000000000, 0.0000000000000000000 ) ) ;
#44 = DIRECTION ( 'NONE',  ( 4.275831445896959482E-31, 1.000000000000000000, 1.224646799147353207E-16 ) ) ;
#45 = MECHANICAL_CONTEXT ( 'NONE', #162, 'mechanical' ) ;
#46 = FACE_BOUND ( 'NONE', #84, .T. ) ;
#47 = LOCAL_TIME ( 10, 12, 37.00000000000000000, #167 ) ;
#48 = PERSON_AND_ORGANIZATION ( #18, #210 ) ;
#49 = DATE_AND_TIME ( #132, #9 ) ;
#50 = ADVANCED_BREP_SHAPE_REPRESENTATION ( '957879', ( #207, #131, #152 ), #99 ) ;
#51 = CONICAL_SURFACE ( 'NONE', #88, 0.7499999999999975575, 0.5235987755982945968 ) ;
#52 = APPROVAL_PERSON_ORGANIZATION ( #95, #193, #27 ) ;
#53 = EDGE_LOOP ( 'NONE', ( #136 ) ) ;
#54 =( LENGTH_UNIT ( ) NAMED_UNIT ( * ) SI_UNIT ( .MILLI., .METRE. ) );
#55 = EDGE_LOOP ( 'NONE', ( #176 ) ) ;
#56 = AXIS2_PLACEMENT_3D ( 'NONE', #107, #181, #147 ) ;
#57 = DIRECTION ( 'NONE',  ( -3.491481338843133355E-15, 1.224646799147353207E-16, -1.000000000000000000 ) ) ;
#58 = CARTESIAN_POINT ( 'NONE',  ( 1.040461438975253740E-13, -3.649447461459112464E-15, 29.80000000000000071 ) ) ;
#59 = VERTEX_POINT ( 'NONE', #123 ) ;
#60 = PRODUCT_RELATED_PRODUCT_CATEGORY ( 'detail', '', ( #191 ) ) ;
#61 = DIRECTION ( 'NONE',  ( 4.275831445896958607E-31, 1.000000000000000000, 1.224646799147353207E-16 ) ) ;
#62 = FACE_OUTER_BOUND ( 'NONE', #155, .T. ) ;
#63 = APPROVAL_DATE_TIME ( #164, #193 ) ;
#64 = CIRCLE ( 'NONE', #146, 0.5500000000000000444 ) ;
#65 = CC_DESIGN_APPROVAL ( #193, ( #192 ) ) ;
#66 = EDGE_LOOP ( 'NONE', ( #133 ) ) ;
#67 = ORIENTED_EDGE ( 'NONE', *, *, #17, .F. ) ;
#68 = ORIENTED_EDGE ( 'NONE', *, *, #115, .T. ) ;
#69 = EDGE_CURVE ( 'NONE', #223, #223, #100, .T. ) ;
#70 = CC_DESIGN_APPROVAL ( #172, ( #135 ) ) ;
#71 = CARTESIAN_POINT ( 'NONE',  ( 1.047444401652940007E-13, 4.124339402320052999E-33, 30.00000000000000000 ) ) ;
#72 = CARTESIAN_POINT ( 'NONE',  ( 1.078457114605636702E-15, -3.782718351452204144E-17, 0.3088823940164527326 ) ) ;
#73 = CARTESIAN_POINT ( 'NONE',  ( 0.0000000000000000000, 0.0000000000000000000, 0.0000000000000000000 ) ) ;
#74 = PERSON_AND_ORGANIZATION ( #18, #210 ) ;
#75 = CARTESIAN_POINT ( 'NONE',  ( 3.142333204958820020E-14, 4.011857418620450490E-33, 9.000000000000000000 ) ) ;
#76 = DIRECTION ( 'NONE',  ( -3.491481338843133355E-15, 1.224646799147353207E-16, -1.000000000000000000 ) ) ;
#77 = APPROVAL_STATUS ( 'not_yet_approved' ) ;
#78 = ADVANCED_FACE ( 'NONE', ( #25, #46 ), #113, .T. ) ;
#79 = PERSON_AND_ORGANIZATION ( #18, #210 ) ;
#80 = DATE_AND_TIME ( #15, #118 ) ;
#81 = PERSON_AND_ORGANIZATION_ROLE ( 'classification_officer' ) ;
#82 = AXIS2_PLACEMENT_3D ( 'NONE', #75, #104, #187 ) ;
#83 = CC_DESIGN_PERSON_AND_ORGANIZATION_ASSIGNMENT ( #108, #217, ( #135 ) ) ;
#84 = EDGE_LOOP ( 'NONE', ( #156 ) ) ;
#85 = CARTESIAN_POINT ( 'NONE',  ( 0.0000000000000000000, 0.0000000000000000000, 0.0000000000000000000 ) ) ;
#86 = EDGE_LOOP ( 'NONE', ( #117 ) ) ;
#87 = CIRCLE ( 'NONE', #221, 0.5349999999999989209 ) ;
#88 = AXIS2_PLACEMENT_3D ( 'NONE', #141, #106, #23 ) ;
#89 = DIRECTION ( 'NONE',  ( -3.599869054929420229E-31, -1.000000000000000000, -1.013273058397669784E-16 ) ) ;
#90 = DIRECTION ( 'NONE',  ( 0.0000000000000000000, 1.000000000000000000, 0.0000000000000000000 ) ) ;
#91 = COORDINATED_UNIVERSAL_TIME_OFFSET ( 1, 0, .AHEAD. ) ;
#92 = FACE_OUTER_BOUND ( 'NONE', #53, .T. ) ;
#93 = APPROVAL_STATUS ( 'not_yet_approved' ) ;
#94 = FACE_OUTER_BOUND ( 'NONE', #55, .T. ) ;
#95 = PERSON_AND_ORGANIZATION ( #18, #210 ) ;
#96 = PERSON_AND_ORGANIZATION ( #18, #210 ) ;
#97 = APPROVAL_ROLE ( '' ) ;
#98 = CC_DESIGN_DATE_AND_TIME_ASSIGNMENT ( #49, #189, ( #13 ) ) ;
#99 =( GEOMETRIC_REPRESENTATION_CONTEXT ( 3 ) GLOBAL_UNCERTAINTY_ASSIGNED_CONTEXT ( ( #38 ) ) GLOBAL_UNIT_ASSIGNED_CONTEXT ( ( #54, #212, #142 ) ) REPRESENTATION_CONTEXT ( 'NONE', 'WORKASPACE' ) );
#100 = CIRCLE ( 'NONE', #56, 0.7499999999999975575 ) ;
#101 = EDGE_LOOP ( 'NONE', ( #138 ) ) ;
#102 = EDGE_LOOP ( 'NONE', ( #2 ) ) ;
#103 = DIRECTION ( 'NONE',  ( 0.0000000000000000000, 0.0000000000000000000, 1.000000000000000000 ) ) ;
#104 = DIRECTION ( 'NONE',  ( 3.491481338843133355E-15, -1.224646799147353207E-16, 1.000000000000000000 ) ) ;
#105 = CARTESIAN_POINT ( 'NONE',  ( 3.142333204958820020E-14, 0.5349999999999985878, 9.000000000000000000 ) ) ;
#106 = DIRECTION ( 'NONE',  ( 3.491481338843133355E-15, -1.224646799147353207E-16, 1.000000000000000000 ) ) ;
#107 = CARTESIAN_POINT ( 'NONE',  ( 3.272352801018750813E-14, -1.147786854497788699E-15, 9.372390923627307302 ) ) ;
#108 = PERSON_AND_ORGANIZATION ( #18, #210 ) ;
#109 = ADVANCED_FACE ( 'NONE', ( #5 ), #185, .F. ) ;
#110 = CARTESIAN_POINT ( 'NONE',  ( 1.047444401652940007E-13, -3.673940397442059178E-15, 30.00000000000000000 ) ) ;
#111 = DATE_AND_TIME ( #199, #178 ) ;
#112 = DIRECTION ( 'NONE',  ( -3.491481338843133355E-15, 1.224646799147353207E-16, -1.000000000000000000 ) ) ;
#113 = CONICAL_SURFACE ( 'NONE', #139, 0.5500000000000000444, 0.7853981633974512766 ) ;
#114 = PERSON_AND_ORGANIZATION_ROLE ( 'design_supplier' ) ;
#115 = EDGE_CURVE ( 'NONE', #173, #173, #153, .T. ) ;
#116 = CARTESIAN_POINT ( 'NONE',  ( 3.272352801018750813E-14, 0.7499999999999963363, 9.372390923627307302 ) ) ;
#117 = ORIENTED_EDGE ( 'NONE', *, *, #69, .F. ) ;
#118 = LOCAL_TIME ( 10, 12, 37.00000000000000000, #169 ) ;
#119 = EDGE_LOOP ( 'NONE', ( #208 ) ) ;
#120 = DIRECTION ( 'NONE',  ( 3.599869054929420229E-31, 1.000000000000000000, 1.013273058397669784E-16 ) ) ;
#121 = ADVANCED_FACE ( 'NONE', ( #30 ), #195, .T. ) ;
#122 = DIRECTION ( 'NONE',  ( 0.0000000000000000000, 1.000000000000000000, 0.0000000000000000000 ) ) ;
#123 = CARTESIAN_POINT ( 'NONE',  ( 1.047444401652940007E-13, 0.5499999999999963807, 30.00000000000000000 ) ) ;
#124 = DATE_AND_TIME ( #219, #47 ) ;
#125 = CARTESIAN_POINT ( 'NONE',  ( 1.078457114605636702E-15, -3.782718351452204144E-17, 0.3088823940164527326 ) ) ;
#126 = CC_DESIGN_PERSON_AND_ORGANIZATION_ASSIGNMENT ( #96, #127, ( #192 ) ) ;
#127 = PERSON_AND_ORGANIZATION_ROLE ( 'creator' ) ;
#128 = AXIS2_PLACEMENT_3D ( 'NONE', #160, #7, #214 ) ;
#129 = CIRCLE ( 'NONE', #128, 0.5349999999999996980 ) ;
#130 = CLOSED_SHELL ( 'NONE', ( #206, #143, #121 ) ) ;
#131 = MANIFOLD_SOLID_BREP ( 'Corps-Déplacer/Copier1[2]', #130 ) ;
#132 = CALENDAR_DATE ( 2021, 8, 10 ) ;
#133 = ORIENTED_EDGE ( 'NONE', *, *, #69, .T. ) ;
#134 = APPROVAL_PERSON_ORGANIZATION ( #1, #150, #97 ) ;
#135 = PRODUCT_DEFINITION ( 'UNKNOWN', '', #192, #202 ) ;
#136 = ORIENTED_EDGE ( 'NONE', *, *, #170, .F. ) ;
#137 = APPLICATION_PROTOCOL_DEFINITION ( 'international standard', 'config_control_design', 1994, #162 ) ;
#138 = ORIENTED_EDGE ( 'NONE', *, *, #209, .F. ) ;
#139 = AXIS2_PLACEMENT_3D ( 'NONE', #26, #213, #90 ) ;
#140 = DIRECTION ( 'NONE',  ( -3.491481338843133355E-15, 1.224646799147353207E-16, -1.000000000000000000 ) ) ;
#141 = CARTESIAN_POINT ( 'NONE',  ( 3.272352801018750813E-14, -1.147786854497788699E-15, 9.372390923627307302 ) ) ;
#142 =( NAMED_UNIT ( * ) SI_UNIT ( $, .STERADIAN. ) SOLID_ANGLE_UNIT ( ) );
#143 = ADVANCED_FACE ( 'NONE', ( #92, #94 ), #163, .T. ) ;
#144 = DIRECTION ( 'NONE',  ( -4.275831445896958607E-31, -1.000000000000000000, -1.224646799147353207E-16 ) ) ;
#145 = APPROVAL_ROLE ( '' ) ;
#146 = AXIS2_PLACEMENT_3D ( 'NONE', #110, #148, #201 ) ;
#147 = DIRECTION ( 'NONE',  ( 0.0000000000000000000, 1.000000000000000000, 0.0000000000000000000 ) ) ;
#148 = DIRECTION ( 'NONE',  ( -3.491481338843133355E-15, 1.224646799147353207E-16, -1.000000000000000000 ) ) ;
#149 = AXIS2_PLACEMENT_3D ( 'NONE', #42, #198, #43 ) ;
#150 = APPROVAL ( #33, 'UNSPECIFIED' ) ;
#151 = APPROVAL_DATE_TIME ( #80, #150 ) ;
#152 = AXIS2_PLACEMENT_3D ( 'NONE', #85, #103, #220 ) ;
#153 = CIRCLE ( 'NONE', #186, 0.7500000000000000000 ) ;
#154 = FACE_OUTER_BOUND ( 'NONE', #66, .T. ) ;
#155 = EDGE_LOOP ( 'NONE', ( #68 ) ) ;
#156 = ORIENTED_EDGE ( 'NONE', *, *, #17, .T. ) ;
#157 = CARTESIAN_POINT ( 'NONE',  ( 3.142333204958820020E-14, 0.5349999999999985878, 9.000000000000000000 ) ) ;
#158 = AXIS2_PLACEMENT_3D ( 'NONE', #216, #211, #61 ) ;
#159 = FACE_OUTER_BOUND ( 'NONE', #3, .T. ) ;
#160 = CARTESIAN_POINT ( 'NONE',  ( 3.142333204958820020E-14, -1.102182119232617714E-15, 9.000000000000000000 ) ) ;
#161 = PERSON_AND_ORGANIZATION ( #18, #210 ) ;
#162 = APPLICATION_CONTEXT ( 'configuration controlled 3d designs of mechanical parts and assemblies' ) ;
#163 = CYLINDRICAL_SURFACE ( 'NONE', #158, 0.5349999999999992539 ) ;
#164 = DATE_AND_TIME ( #32, #20 ) ;
#165 = PLANE ( 'NONE',  #203 ) ;
#166 = CC_DESIGN_APPROVAL ( #150, ( #13 ) ) ;
#167 = COORDINATED_UNIVERSAL_TIME_OFFSET ( 1, 0, .AHEAD. ) ;
#168 = ADVANCED_FACE ( 'NONE', ( #197 ), #165, .F. ) ;
#169 = COORDINATED_UNIVERSAL_TIME_OFFSET ( 1, 0, .AHEAD. ) ;
#170 = EDGE_CURVE ( 'NONE', #174, #174, #87, .T. ) ;
#171 = COORDINATED_UNIVERSAL_TIME_OFFSET ( 1, 0, .AHEAD. ) ;
#172 = APPROVAL ( #93, 'UNSPECIFIED' ) ;
#173 = VERTEX_POINT ( 'NONE', #34 ) ;
#174 = VERTEX_POINT ( 'NONE', #40 ) ;
#175 = PRODUCT_DEFINITION_SHAPE ( 'NONE', 'NONE',  #135 ) ;
#176 = ORIENTED_EDGE ( 'NONE', *, *, #209, .T. ) ;
#177 = EDGE_CURVE ( 'NONE', #41, #41, #24, .T. ) ;
#178 = LOCAL_TIME ( 10, 12, 37.00000000000000000, #184 ) ;
#179 = ORIENTED_EDGE ( 'NONE', *, *, #170, .T. ) ;
#180 = SHAPE_DEFINITION_REPRESENTATION ( #175, #50 ) ;
#181 = DIRECTION ( 'NONE',  ( -3.491481338843133355E-15, 1.224646799147353207E-16, -1.000000000000000000 ) ) ;
#182 = DIRECTION ( 'NONE',  ( 3.491481338843133355E-15, -1.224646799147353207E-16, 1.000000000000000000 ) ) ;
#183 = DIRECTION ( 'NONE',  ( 3.491481338843133355E-15, -1.224646799147353207E-16, 1.000000000000000000 ) ) ;
#184 = COORDINATED_UNIVERSAL_TIME_OFFSET ( 1, 0, .AHEAD. ) ;
#185 = PLANE ( 'NONE',  #36 ) ;
#186 = AXIS2_PLACEMENT_3D ( 'NONE', #58, #112, #122 ) ;
#187 = DIRECTION ( 'NONE',  ( -4.275831445896958607E-31, -1.000000000000000000, -1.224646799147353207E-16 ) ) ;
#188 = APPLICATION_PROTOCOL_DEFINITION ( 'international standard', 'config_control_design', 1994, #200 ) ;
#189 = DATE_TIME_ROLE ( 'classification_date' ) ;
#190 = CONICAL_SURFACE ( 'NONE', #215, 0.5349999999999989209, 1.047197551196592746 ) ;
#191 = PRODUCT ( '957879', '957879', '', ( #45 ) ) ;
#192 = PRODUCT_DEFINITION_FORMATION_WITH_SPECIFIED_SOURCE ( 'ANY', '', #191, .NOT_KNOWN. ) ;
#193 = APPROVAL ( #77, 'UNSPECIFIED' ) ;
#194 = CLOSED_SHELL ( 'NONE', ( #109, #14, #37, #78, #168 ) ) ;
#195 = PLANE ( 'NONE',  #82 ) ;
#196 = DIRECTION ( 'NONE',  ( 4.275831445896958607E-31, 1.000000000000000000, 1.224646799147353207E-16 ) ) ;
#197 = FACE_OUTER_BOUND ( 'NONE', #39, .T. ) ;
#198 = DIRECTION ( 'NONE',  ( -3.491481338843133355E-15, 1.224646799147353207E-16, -1.000000000000000000 ) ) ;
#199 = CALENDAR_DATE ( 2021, 8, 10 ) ;
#200 = APPLICATION_CONTEXT ( 'configuration controlled 3d designs of mechanical parts and assemblies' ) ;
#201 = DIRECTION ( 'NONE',  ( 0.0000000000000000000, 1.000000000000000000, 0.0000000000000000000 ) ) ;
#202 = DESIGN_CONTEXT ( 'detailed design', #200, 'design' ) ;
#203 = AXIS2_PLACEMENT_3D ( 'NONE', #71, #140, #196 ) ;
#204 = CC_DESIGN_PERSON_AND_ORGANIZATION_ASSIGNMENT ( #161, #114, ( #192 ) ) ;
#205 = DATE_TIME_ROLE ( 'creation_date' ) ;
#206 = ADVANCED_FACE ( 'NONE', ( #159 ), #190, .T. ) ;
#207 = MANIFOLD_SOLID_BREP ( 'Corps-Déplacer/Copier1[1]', #194 ) ;
#208 = ORIENTED_EDGE ( 'NONE', *, *, #177, .F. ) ;
#209 = EDGE_CURVE ( 'NONE', #4, #4, #129, .T. ) ;
#210 = ORGANIZATION ( 'UNSPECIFIED', 'UNSPECIFIED', '' ) ;
#211 = DIRECTION ( 'NONE',  ( -3.491481338843133355E-15, 1.224646799147353207E-16, -1.000000000000000000 ) ) ;
#212 =( NAMED_UNIT ( * ) PLANE_ANGLE_UNIT ( ) SI_UNIT ( $, .RADIAN. ) );
#213 = DIRECTION ( 'NONE',  ( -3.491481338843133355E-15, 1.224646799147353207E-16, -1.000000000000000000 ) ) ;
#214 = DIRECTION ( 'NONE',  ( 0.0000000000000000000, 1.000000000000000000, 0.0000000000000000000 ) ) ;
#215 = AXIS2_PLACEMENT_3D ( 'NONE', #72, #182, #89 ) ;
#216 = CARTESIAN_POINT ( 'NONE',  ( 0.0000000000000000000, 0.0000000000000000000, 0.0000000000000000000 ) ) ;
#217 = PERSON_AND_ORGANIZATION_ROLE ( 'creator' ) ;
#218 = FACE_OUTER_BOUND ( 'NONE', #86, .T. ) ;
#219 = CALENDAR_DATE ( 2021, 8, 10 ) ;
#220 = DIRECTION ( 'NONE',  ( 1.000000000000000000, 0.0000000000000000000, 0.0000000000000000000 ) ) ;
#221 = AXIS2_PLACEMENT_3D ( 'NONE', #125, #57, #120 ) ;
#222 = CC_DESIGN_PERSON_AND_ORGANIZATION_ASSIGNMENT ( #79, #8, ( #191 ) ) ;
#223 = VERTEX_POINT ( 'NONE', #116 ) ;
ENDSEC;
END-ISO-10303-21;
