ISO-10303-21;
HEADER;
FILE_DESCRIPTION (( 'STEP AP203' ),
    '1' );
FILE_NAME ('957867.step',
    '2021-10-08T08:12:34',
    ( '' ),
    ( '' ),
    'SwSTEP 2.0',
    'SolidWorks 2019',
    '' );
FILE_SCHEMA (( 'CONFIG_CONTROL_DESIGN' ));
ENDSEC;

DATA;
#1 = VERTEX_POINT ( 'NONE', #150 ) ;
#2 = COORDINATED_UNIVERSAL_TIME_OFFSET ( 1, 0, .AHEAD. ) ;
#3 = CONICAL_SURFACE ( 'NONE', #102, 0.5500000000000000444, 0.7853981633974512766 ) ;
#4 = PERSON_AND_ORGANIZATION_ROLE ( 'design_supplier' ) ;
#5 = APPLICATION_PROTOCOL_DEFINITION ( 'international standard', 'config_control_design', 1994, #126 ) ;
#6 = COORDINATED_UNIVERSAL_TIME_OFFSET ( 1, 0, .AHEAD. ) ;
#7 = LOCAL_TIME ( 10, 12, 34.00000000000000000, #2 ) ;
#8 = AXIS2_PLACEMENT_3D ( 'NONE', #106, #11, #45 ) ;
#9 =( NAMED_UNIT ( * ) SI_UNIT ( $, .STERADIAN. ) SOLID_ANGLE_UNIT ( ) );
#10 = EDGE_CURVE ( 'NONE', #54, #54, #170, .T. ) ;
#11 = DIRECTION ( 'NONE',  ( 3.491481338843133355E-15, -1.224646799147353207E-16, 1.000000000000000000 ) ) ;
#12 = DIRECTION ( 'NONE',  ( -3.491481338843133355E-15, 1.224646799147353207E-16, -1.000000000000000000 ) ) ;
#13 = CONICAL_SURFACE ( 'NONE', #148, 0.7499999999999975575, 0.5235987755982942637 ) ;
#14 = DIRECTION ( 'NONE',  ( -3.491481338843133355E-15, 1.224646799147353207E-16, -1.000000000000000000 ) ) ;
#15 = FACE_OUTER_BOUND ( 'NONE', #205, .T. ) ;
#16 = CARTESIAN_POINT ( 'NONE',  ( 3.287471358700138334E-14, -1.153089730691413329E-15, 9.415692193816530775 ) ) ;
#17 = EDGE_LOOP ( 'NONE', ( #199 ) ) ;
#18 = CC_DESIGN_SECURITY_CLASSIFICATION ( #194, ( #28 ) ) ;
#19 = ADVANCED_FACE ( 'NONE', ( #27 ), #26, .T. ) ;
#20 = CARTESIAN_POINT ( 'NONE',  ( 3.142333204958820020E-14, 0.5099999999999987876, 9.000000000000000000 ) ) ;
#21 = PERSON_AND_ORGANIZATION ( #135, #189 ) ;
#22 =( LENGTH_UNIT ( ) NAMED_UNIT ( * ) SI_UNIT ( .MILLI., .METRE. ) );
#23 =( GEOMETRIC_REPRESENTATION_CONTEXT ( 3 ) GLOBAL_UNCERTAINTY_ASSIGNED_CONTEXT ( ( #62 ) ) GLOBAL_UNIT_ASSIGNED_CONTEXT ( ( #22, #207, #9 ) ) REPRESENTATION_CONTEXT ( 'NONE', 'WORKASPACE' ) );
#24 = EDGE_CURVE ( 'NONE', #175, #175, #201, .T. ) ;
#25 = DATE_TIME_ROLE ( 'creation_date' ) ;
#26 = CONICAL_SURFACE ( 'NONE', #8, 0.5099999999999988987, 1.047197551196592746 ) ;
#27 = FACE_OUTER_BOUND ( 'NONE', #112, .T. ) ;
#28 = PRODUCT_DEFINITION_FORMATION_WITH_SPECIFIED_SOURCE ( 'ANY', '', #61, .NOT_KNOWN. ) ;
#29 = AXIS2_PLACEMENT_3D ( 'NONE', #171, #89, #33 ) ;
#30 = DIRECTION ( 'NONE',  ( -3.491481338843133355E-15, 1.224646799147353207E-16, -1.000000000000000000 ) ) ;
#31 = DIRECTION ( 'NONE',  ( -4.275831445896958607E-31, -1.000000000000000000, -1.224646799147353207E-16 ) ) ;
#32 = CLOSED_SHELL ( 'NONE', ( #19, #172, #174 ) ) ;
#33 = DIRECTION ( 'NONE',  ( 4.275831445896958607E-31, 1.000000000000000000, 1.224646799147353454E-16 ) ) ;
#34 = EDGE_LOOP ( 'NONE', ( #168 ) ) ;
#35 = LOCAL_TIME ( 10, 12, 34.00000000000000000, #6 ) ;
#36 = DIRECTION ( 'NONE',  ( 0.0000000000000000000, 1.000000000000000000, 0.0000000000000000000 ) ) ;
#37 = CARTESIAN_POINT ( 'NONE',  ( 1.028061922334345357E-15, 0.5099999999999988987, 0.2944486372867119450 ) ) ;
#38 = PERSON_AND_ORGANIZATION_ROLE ( 'classification_officer' ) ;
#39 = AXIS2_PLACEMENT_3D ( 'NONE', #198, #42, #100 ) ;
#40 = ORIENTED_EDGE ( 'NONE', *, *, #101, .F. ) ;
#41 = COORDINATED_UNIVERSAL_TIME_OFFSET ( 1, 0, .AHEAD. ) ;
#42 = DIRECTION ( 'NONE',  ( -3.491481338843133355E-15, 1.224646799147353207E-16, -1.000000000000000000 ) ) ;
#43 = PRODUCT_DEFINITION ( 'UNKNOWN', '', #28, #72 ) ;
#44 = ORIENTED_EDGE ( 'NONE', *, *, #10, .F. ) ;
#45 = DIRECTION ( 'NONE',  ( -3.776333224288706011E-31, -1.000000000000000000, -1.062943306358340005E-16 ) ) ;
#46 = APPROVAL_PERSON_ORGANIZATION ( #116, #204, #156 ) ;
#47 = PRODUCT_RELATED_PRODUCT_CATEGORY ( 'detail', '', ( #61 ) ) ;
#48 = ADVANCED_FACE ( 'NONE', ( #211 ), #164, .F. ) ;
#49 = DIRECTION ( 'NONE',  ( 3.491481338843133355E-15, -1.224646799147353207E-16, 1.000000000000000000 ) ) ;
#50 = ORIENTED_EDGE ( 'NONE', *, *, #101, .T. ) ;
#51 = AXIS2_PLACEMENT_3D ( 'NONE', #215, #30, #73 ) ;
#52 = PLANE ( 'NONE',  #117 ) ;
#53 = EDGE_LOOP ( 'NONE', ( #186 ) ) ;
#54 = VERTEX_POINT ( 'NONE', #20 ) ;
#55 = MANIFOLD_SOLID_BREP ( 'Corps-Déplacer/Copier1[2]', #32 ) ;
#56 = PERSON_AND_ORGANIZATION ( #135, #189 ) ;
#57 = APPROVAL_STATUS ( 'not_yet_approved' ) ;
#58 = DIRECTION ( 'NONE',  ( 1.000000000000000000, 0.0000000000000000000, 0.0000000000000000000 ) ) ;
#59 = DATE_AND_TIME ( #136, #35 ) ;
#60 = CARTESIAN_POINT ( 'NONE',  ( 1.047444401652940007E-13, 4.124339402320052999E-33, 30.00000000000000000 ) ) ;
#61 = PRODUCT ( '957867', '957867', '', ( #210 ) ) ;
#62 = UNCERTAINTY_MEASURE_WITH_UNIT (LENGTH_MEASURE( 1.000000000000000082E-05 ), #22, 'distance_accuracy_value', 'NONE');
#63 = CC_DESIGN_DATE_AND_TIME_ASSIGNMENT ( #179, #25, ( #43 ) ) ;
#64 = EDGE_LOOP ( 'NONE', ( #50 ) ) ;
#65 = CARTESIAN_POINT ( 'NONE',  ( 1.047444401652940007E-13, -3.673940397442059178E-15, 30.00000000000000000 ) ) ;
#66 = EDGE_LOOP ( 'NONE', ( #140 ) ) ;
#67 = COORDINATED_UNIVERSAL_TIME_OFFSET ( 1, 0, .AHEAD. ) ;
#68 = DIRECTION ( 'NONE',  ( 4.275831445896958607E-31, 1.000000000000000000, 1.224646799147353207E-16 ) ) ;
#69 = DIRECTION ( 'NONE',  ( -3.491481338843133355E-15, 1.224646799147353207E-16, -1.000000000000000000 ) ) ;
#70 = EDGE_CURVE ( 'NONE', #79, #79, #219, .T. ) ;
#71 = AXIS2_PLACEMENT_3D ( 'NONE', #115, #137, #58 ) ;
#72 = DESIGN_CONTEXT ( 'detailed design', #126, 'design' ) ;
#73 = DIRECTION ( 'NONE',  ( 4.275831445896959482E-31, 1.000000000000000000, 1.224646799147353207E-16 ) ) ;
#74 = ORIENTED_EDGE ( 'NONE', *, *, #118, .F. ) ;
#75 = FACE_OUTER_BOUND ( 'NONE', #66, .T. ) ;
#76 = AXIS2_PLACEMENT_3D ( 'NONE', #167, #187, #36 ) ;
#77 = CC_DESIGN_PERSON_AND_ORGANIZATION_ASSIGNMENT ( #56, #114, ( #28 ) ) ;
#78 = FACE_OUTER_BOUND ( 'NONE', #166, .T. ) ;
#79 = VERTEX_POINT ( 'NONE', #82 ) ;
#80 = APPROVAL_STATUS ( 'not_yet_approved' ) ;
#81 = COORDINATED_UNIVERSAL_TIME_OFFSET ( 1, 0, .AHEAD. ) ;
#82 = CARTESIAN_POINT ( 'NONE',  ( 3.142333204958820020E-14, 0.5099999999999987876, 9.000000000000000000 ) ) ;
#83 = CALENDAR_DATE ( 2021, 8, 10 ) ;
#84 = APPLICATION_PROTOCOL_DEFINITION ( 'international standard', 'config_control_design', 1994, #163 ) ;
#85 = PERSON_AND_ORGANIZATION_ROLE ( 'creator' ) ;
#86 = EDGE_CURVE ( 'NONE', #188, #188, #127, .T. ) ;
#87 = CARTESIAN_POINT ( 'NONE',  ( 1.040461438975253740E-13, -3.649447461459112464E-15, 29.80000000000000071 ) ) ;
#88 = LOCAL_TIME ( 10, 12, 34.00000000000000000, #81 ) ;
#89 = DIRECTION ( 'NONE',  ( -3.491481338843133355E-15, 1.224646799147353207E-16, -1.000000000000000000 ) ) ;
#90 = ORIENTED_EDGE ( 'NONE', *, *, #24, .T. ) ;
#91 = FACE_OUTER_BOUND ( 'NONE', #169, .T. ) ;
#92 = FACE_OUTER_BOUND ( 'NONE', #125, .T. ) ;
#93 = DIRECTION ( 'NONE',  ( 0.0000000000000000000, -1.000000000000000000, 0.0000000000000000000 ) ) ;
#94 = CLOSED_SHELL ( 'NONE', ( #209, #122, #108, #212, #48 ) ) ;
#95 = DIRECTION ( 'NONE',  ( -3.491481338843133355E-15, 1.224646799147353207E-16, -1.000000000000000000 ) ) ;
#96 = CC_DESIGN_DATE_AND_TIME_ASSIGNMENT ( #133, #152, ( #194 ) ) ;
#97 = APPROVAL_DATE_TIME ( #154, #177 ) ;
#98 = CALENDAR_DATE ( 2021, 8, 10 ) ;
#99 = APPROVAL_DATE_TIME ( #59, #204 ) ;
#100 = DIRECTION ( 'NONE',  ( 0.0000000000000000000, 1.000000000000000000, 0.0000000000000000000 ) ) ;
#101 = EDGE_CURVE ( 'NONE', #1, #1, #109, .T. ) ;
#102 = AXIS2_PLACEMENT_3D ( 'NONE', #65, #95, #132 ) ;
#103 = ADVANCED_BREP_SHAPE_REPRESENTATION ( '957867', ( #119, #55, #71 ), #23 ) ;
#104 = CARTESIAN_POINT ( 'NONE',  ( 1.028061922334345160E-15, -3.605955811664717111E-17, 0.2944486372867118895 ) ) ;
#105 = APPROVAL_PERSON_ORGANIZATION ( #223, #218, #155 ) ;
#106 = CARTESIAN_POINT ( 'NONE',  ( 1.028061922334345160E-15, -3.605955811664717111E-17, 0.2944486372867118895 ) ) ;
#107 = CARTESIAN_POINT ( 'NONE',  ( 3.142333204958820020E-14, 3.824387445787719657E-33, 9.000000000000000000 ) ) ;
#108 = ADVANCED_FACE ( 'NONE', ( #15, #75 ), #123, .T. ) ;
#109 = CIRCLE ( 'NONE', #39, 0.7499999999999975575 ) ;
#110 = DIRECTION ( 'NONE',  ( 3.491481338843133355E-15, -1.224646799147353207E-16, 1.000000000000000000 ) ) ;
#111 = FACE_BOUND ( 'NONE', #17, .T. ) ;
#112 = EDGE_LOOP ( 'NONE', ( #90 ) ) ;
#113 = DATE_AND_TIME ( #180, #216 ) ;
#114 = PERSON_AND_ORGANIZATION_ROLE ( 'creator' ) ;
#115 = CARTESIAN_POINT ( 'NONE',  ( 0.0000000000000000000, 0.0000000000000000000, 0.0000000000000000000 ) ) ;
#116 = PERSON_AND_ORGANIZATION ( #135, #189 ) ;
#117 = AXIS2_PLACEMENT_3D ( 'NONE', #107, #184, #31 ) ;
#118 = EDGE_CURVE ( 'NONE', #193, #193, #203, .T. ) ;
#119 = MANIFOLD_SOLID_BREP ( 'Corps-Déplacer/Copier1[1]', #94 ) ;
#120 = ORIENTED_EDGE ( 'NONE', *, *, #86, .F. ) ;
#121 = ORIENTED_EDGE ( 'NONE', *, *, #70, .T. ) ;
#122 = ADVANCED_FACE ( 'NONE', ( #217, #145 ), #13, .T. ) ;
#123 = CYLINDRICAL_SURFACE ( 'NONE', #51, 0.7499999999999986677 ) ;
#124 = CC_DESIGN_PERSON_AND_ORGANIZATION_ASSIGNMENT ( #221, #4, ( #28 ) ) ;
#125 = EDGE_LOOP ( 'NONE', ( #121 ) ) ;
#126 = APPLICATION_CONTEXT ( 'configuration controlled 3d designs of mechanical parts and assemblies' ) ;
#127 = CIRCLE ( 'NONE', #182, 0.7500000000000000000 ) ;
#128 = FACE_OUTER_BOUND ( 'NONE', #34, .T. ) ;
#129 = LOCAL_TIME ( 10, 12, 34.00000000000000000, #41 ) ;
#130 = EDGE_LOOP ( 'NONE', ( #147 ) ) ;
#131 = APPROVAL_PERSON_ORGANIZATION ( #197, #177, #151 ) ;
#132 = DIRECTION ( 'NONE',  ( 0.0000000000000000000, 1.000000000000000000, 0.0000000000000000000 ) ) ;
#133 = DATE_AND_TIME ( #83, #88 ) ;
#134 = CALENDAR_DATE ( 2021, 8, 10 ) ;
#135 = PERSON ( 'UNSPECIFIED', 'UNSPECIFIED', 'UNSPECIFIED', ('UNSPECIFIED'), ('UNSPECIFIED'), ('UNSPECIFIED') ) ;
#136 = CALENDAR_DATE ( 2021, 8, 10 ) ;
#137 = DIRECTION ( 'NONE',  ( 0.0000000000000000000, 0.0000000000000000000, 1.000000000000000000 ) ) ;
#138 = CC_DESIGN_PERSON_AND_ORGANIZATION_ASSIGNMENT ( #176, #38, ( #194 ) ) ;
#139 = CARTESIAN_POINT ( 'NONE',  ( 3.142333204958820020E-14, -1.102182119232617714E-15, 9.000000000000000000 ) ) ;
#140 = ORIENTED_EDGE ( 'NONE', *, *, #86, .T. ) ;
#141 = CARTESIAN_POINT ( 'NONE',  ( 3.142333204958820020E-14, -1.102182119232617714E-15, 9.000000000000000000 ) ) ;
#142 = AXIS2_PLACEMENT_3D ( 'NONE', #60, #69, #68 ) ;
#143 = DIRECTION ( 'NONE',  ( 3.776333224288706011E-31, 1.000000000000000000, 1.062943306358340005E-16 ) ) ;
#144 = DIRECTION ( 'NONE',  ( 0.0000000000000000000, 1.000000000000000000, 0.0000000000000000000 ) ) ;
#145 = FACE_OUTER_BOUND ( 'NONE', #64, .T. ) ;
#146 = CC_DESIGN_APPROVAL ( #218, ( #194 ) ) ;
#147 = ORIENTED_EDGE ( 'NONE', *, *, #70, .F. ) ;
#148 = AXIS2_PLACEMENT_3D ( 'NONE', #16, #49, #93 ) ;
#149 = CC_DESIGN_PERSON_AND_ORGANIZATION_ASSIGNMENT ( #21, #191, ( #61 ) ) ;
#150 = CARTESIAN_POINT ( 'NONE',  ( 3.287471358700138334E-14, 0.7499999999999963363, 9.415692193816530775 ) ) ;
#151 = APPROVAL_ROLE ( '' ) ;
#152 = DATE_TIME_ROLE ( 'classification_date' ) ;
#153 = AXIS2_PLACEMENT_3D ( 'NONE', #139, #161, #160 ) ;
#154 = DATE_AND_TIME ( #98, #129 ) ;
#155 = APPROVAL_ROLE ( '' ) ;
#156 = APPROVAL_ROLE ( '' ) ;
#157 = CC_DESIGN_APPROVAL ( #204, ( #28 ) ) ;
#158 = CARTESIAN_POINT ( 'NONE',  ( 1.047444401652940007E-13, 0.5499999999999963807, 30.00000000000000000 ) ) ;
#159 = AXIS2_PLACEMENT_3D ( 'NONE', #202, #110, #185 ) ;
#160 = DIRECTION ( 'NONE',  ( 0.0000000000000000000, 1.000000000000000000, 0.0000000000000000000 ) ) ;
#161 = DIRECTION ( 'NONE',  ( -3.491481338843133355E-15, 1.224646799147353207E-16, -1.000000000000000000 ) ) ;
#162 = EDGE_LOOP ( 'NONE', ( #74 ) ) ;
#163 = APPLICATION_CONTEXT ( 'configuration controlled 3d designs of mechanical parts and assemblies' ) ;
#164 = PLANE ( 'NONE',  #142 ) ;
#165 = PLANE ( 'NONE',  #159 ) ;
#166 = EDGE_LOOP ( 'NONE', ( #44 ) ) ;
#167 = CARTESIAN_POINT ( 'NONE',  ( 1.047444401652940007E-13, -3.673940397442059178E-15, 30.00000000000000000 ) ) ;
#168 = ORIENTED_EDGE ( 'NONE', *, *, #24, .F. ) ;
#169 = EDGE_LOOP ( 'NONE', ( #120 ) ) ;
#170 = CIRCLE ( 'NONE', #153, 0.5099999999999997868 ) ;
#171 = CARTESIAN_POINT ( 'NONE',  ( 0.0000000000000000000, 0.0000000000000000000, 0.0000000000000000000 ) ) ;
#172 = ADVANCED_FACE ( 'NONE', ( #128, #206 ), #220, .T. ) ;
#173 = CARTESIAN_POINT ( 'NONE',  ( 1.040461438975253740E-13, 0.7499999999999963363, 29.80000000000000071 ) ) ;
#174 = ADVANCED_FACE ( 'NONE', ( #78 ), #52, .T. ) ;
#175 = VERTEX_POINT ( 'NONE', #37 ) ;
#176 = PERSON_AND_ORGANIZATION ( #135, #189 ) ;
#177 = APPROVAL ( #80, 'UNSPECIFIED' ) ;
#178 = AXIS2_PLACEMENT_3D ( 'NONE', #141, #14, #213 ) ;
#179 = DATE_AND_TIME ( #134, #7 ) ;
#180 = CALENDAR_DATE ( 2021, 8, 10 ) ;
#181 = AXIS2_PLACEMENT_3D ( 'NONE', #104, #12, #143 ) ;
#182 = AXIS2_PLACEMENT_3D ( 'NONE', #87, #183, #144 ) ;
#183 = DIRECTION ( 'NONE',  ( -3.491481338843133355E-15, 1.224646799147353207E-16, -1.000000000000000000 ) ) ;
#184 = DIRECTION ( 'NONE',  ( 3.491481338843133355E-15, -1.224646799147353207E-16, 1.000000000000000000 ) ) ;
#185 = DIRECTION ( 'NONE',  ( -4.275831445896958607E-31, -1.000000000000000000, -1.224646799147353207E-16 ) ) ;
#186 = ORIENTED_EDGE ( 'NONE', *, *, #10, .T. ) ;
#187 = DIRECTION ( 'NONE',  ( -3.491481338843133355E-15, 1.224646799147353207E-16, -1.000000000000000000 ) ) ;
#188 = VERTEX_POINT ( 'NONE', #173 ) ;
#189 = ORGANIZATION ( 'UNSPECIFIED', 'UNSPECIFIED', '' ) ;
#190 = SECURITY_CLASSIFICATION_LEVEL ( 'unclassified' ) ;
#191 = PERSON_AND_ORGANIZATION_ROLE ( 'design_owner' ) ;
#192 = APPROVAL_DATE_TIME ( #113, #218 ) ;
#193 = VERTEX_POINT ( 'NONE', #158 ) ;
#194 = SECURITY_CLASSIFICATION ( '', '', #190 ) ;
#195 = SHAPE_DEFINITION_REPRESENTATION ( #200, #103 ) ;
#196 = APPROVAL_STATUS ( 'not_yet_approved' ) ;
#197 = PERSON_AND_ORGANIZATION ( #135, #189 ) ;
#198 = CARTESIAN_POINT ( 'NONE',  ( 3.287471358700138334E-14, -1.153089730691413329E-15, 9.415692193816530775 ) ) ;
#199 = ORIENTED_EDGE ( 'NONE', *, *, #118, .T. ) ;
#200 = PRODUCT_DEFINITION_SHAPE ( 'NONE', 'NONE',  #43 ) ;
#201 = CIRCLE ( 'NONE', #181, 0.5099999999999988987 ) ;
#202 = CARTESIAN_POINT ( 'NONE',  ( 3.142333204958820020E-14, 3.824387445787719657E-33, 9.000000000000000000 ) ) ;
#203 = CIRCLE ( 'NONE', #76, 0.5500000000000000444 ) ;
#204 = APPROVAL ( #196, 'UNSPECIFIED' ) ;
#205 = EDGE_LOOP ( 'NONE', ( #40 ) ) ;
#206 = FACE_OUTER_BOUND ( 'NONE', #53, .T. ) ;
#207 =( NAMED_UNIT ( * ) PLANE_ANGLE_UNIT ( ) SI_UNIT ( $, .RADIAN. ) );
#208 = PERSON_AND_ORGANIZATION ( #135, #189 ) ;
#209 = ADVANCED_FACE ( 'NONE', ( #92 ), #165, .F. ) ;
#210 = MECHANICAL_CONTEXT ( 'NONE', #163, 'mechanical' ) ;
#211 = FACE_OUTER_BOUND ( 'NONE', #162, .T. ) ;
#212 = ADVANCED_FACE ( 'NONE', ( #91, #111 ), #3, .T. ) ;
#213 = DIRECTION ( 'NONE',  ( 0.0000000000000000000, 1.000000000000000000, 0.0000000000000000000 ) ) ;
#214 = CC_DESIGN_APPROVAL ( #177, ( #43 ) ) ;
#215 = CARTESIAN_POINT ( 'NONE',  ( 0.0000000000000000000, 0.0000000000000000000, 0.0000000000000000000 ) ) ;
#216 = LOCAL_TIME ( 10, 12, 34.00000000000000000, #67 ) ;
#217 = FACE_BOUND ( 'NONE', #130, .T. ) ;
#218 = APPROVAL ( #57, 'UNSPECIFIED' ) ;
#219 = CIRCLE ( 'NONE', #178, 0.5099999999999997868 ) ;
#220 = CYLINDRICAL_SURFACE ( 'NONE', #29, 0.5099999999999993427 ) ;
#221 = PERSON_AND_ORGANIZATION ( #135, #189 ) ;
#222 = CC_DESIGN_PERSON_AND_ORGANIZATION_ASSIGNMENT ( #208, #85, ( #43 ) ) ;
#223 = PERSON_AND_ORGANIZATION ( #135, #189 ) ;
ENDSEC;
END-ISO-10303-21;
