ISO-10303-21;
HEADER;
FILE_DESCRIPTION (( 'STEP AP203' ),
    '1' );
FILE_NAME ('957865.step',
    '2021-10-08T08:12:31',
    ( '' ),
    ( '' ),
    'SwSTEP 2.0',
    'SolidWorks 2019',
    '' );
FILE_SCHEMA (( 'CONFIG_CONTROL_DESIGN' ));
ENDSEC;

DATA;
#1 = APPROVAL_DATE_TIME ( #135, #132 ) ;
#2 = ADVANCED_FACE ( 'NONE', ( #39 ), #34, .F. ) ;
#3 = DIRECTION ( 'NONE',  ( -3.491481338843133355E-15, 1.224646799147353207E-16, -1.000000000000000000 ) ) ;
#4 = CIRCLE ( 'NONE', #147, 0.5500000000000000444 ) ;
#5 = CARTESIAN_POINT ( 'NONE',  ( 3.142333204958820020E-14, 0.5049999999999981171, 9.000000000000000000 ) ) ;
#6 =( GEOMETRIC_REPRESENTATION_CONTEXT ( 3 ) GLOBAL_UNCERTAINTY_ASSIGNED_CONTEXT ( ( #26 ) ) GLOBAL_UNIT_ASSIGNED_CONTEXT ( ( #33, #218, #114 ) ) REPRESENTATION_CONTEXT ( 'NONE', 'WORKASPACE' ) );
#7 = CARTESIAN_POINT ( 'NONE',  ( 3.142333204958820020E-14, 3.786893451221168154E-33, 9.000000000000000000 ) ) ;
#8 = DESIGN_CONTEXT ( 'detailed design', #170, 'design' ) ;
#9 = FACE_OUTER_BOUND ( 'NONE', #187, .T. ) ;
#10 = CIRCLE ( 'NONE', #172, 0.5049999999999991163 ) ;
#11 = DIRECTION ( 'NONE',  ( 4.275831445896959482E-31, 1.000000000000000000, 1.224646799147353454E-16 ) ) ;
#12 = ADVANCED_BREP_SHAPE_REPRESENTATION ( '957865', ( #29, #105, #186 ), #6 ) ;
#13 = DIRECTION ( 'NONE',  ( 1.000000000000000000, 0.0000000000000000000, 0.0000000000000000000 ) ) ;
#14 = APPLICATION_PROTOCOL_DEFINITION ( 'international standard', 'config_control_design', 1994, #170 ) ;
#15 = COORDINATED_UNIVERSAL_TIME_OFFSET ( 1, 0, .AHEAD. ) ;
#16 = AXIS2_PLACEMENT_3D ( 'NONE', #112, #72, #25 ) ;
#17 = DIRECTION ( 'NONE',  ( -3.491481338843133355E-15, 1.224646799147353207E-16, -1.000000000000000000 ) ) ;
#18 = PERSON_AND_ORGANIZATION ( #158, #219 ) ;
#19 = CC_DESIGN_PERSON_AND_ORGANIZATION_ASSIGNMENT ( #30, #79, ( #71 ) ) ;
#20 = CC_DESIGN_PERSON_AND_ORGANIZATION_ASSIGNMENT ( #48, #179, ( #100 ) ) ;
#21 = CARTESIAN_POINT ( 'NONE',  ( 3.290495070236415207E-14, -1.154150305930138373E-15, 9.424352447854374759 ) ) ;
#22 = AXIS2_PLACEMENT_3D ( 'NONE', #103, #17, #36 ) ;
#23 = DIRECTION ( 'NONE',  ( -3.813722662152950816E-31, -1.000000000000000000, -1.073467497510402831E-16 ) ) ;
#24 = EDGE_CURVE ( 'NONE', #205, #205, #10, .T. ) ;
#25 = DIRECTION ( 'NONE',  ( 0.0000000000000000000, 1.000000000000000000, 0.0000000000000000000 ) ) ;
#26 = UNCERTAINTY_MEASURE_WITH_UNIT (LENGTH_MEASURE( 1.000000000000000082E-05 ), #33, 'distance_accuracy_value', 'NONE');
#27 = DIRECTION ( 'NONE',  ( 0.0000000000000000000, -1.000000000000000000, 0.0000000000000000000 ) ) ;
#28 = DATE_TIME_ROLE ( 'creation_date' ) ;
#29 = MANIFOLD_SOLID_BREP ( 'Corps-Déplacer/Copier1[1]', #91 ) ;
#30 = PERSON_AND_ORGANIZATION ( #158, #219 ) ;
#31 = LOCAL_TIME ( 10, 12, 31.00000000000000000, #203 ) ;
#32 = CARTESIAN_POINT ( 'NONE',  ( 1.040461438975253740E-13, 0.7499999999999963363, 29.80000000000000071 ) ) ;
#33 =( LENGTH_UNIT ( ) NAMED_UNIT ( * ) SI_UNIT ( .MILLI., .METRE. ) );
#34 = PLANE ( 'NONE',  #22 ) ;
#35 = AXIS2_PLACEMENT_3D ( 'NONE', #141, #125, #92 ) ;
#36 = DIRECTION ( 'NONE',  ( 4.275831445896958607E-31, 1.000000000000000000, 1.224646799147353207E-16 ) ) ;
#37 = PERSON_AND_ORGANIZATION ( #158, #219 ) ;
#38 = APPROVAL ( #143, 'UNSPECIFIED' ) ;
#39 = FACE_OUTER_BOUND ( 'NONE', #101, .T. ) ;
#40 = CARTESIAN_POINT ( 'NONE',  ( 3.142333204958820020E-14, -1.102182119232617714E-15, 9.000000000000000000 ) ) ;
#41 = CC_DESIGN_PERSON_AND_ORGANIZATION_ASSIGNMENT ( #18, #67, ( #145 ) ) ;
#42 = AXIS2_PLACEMENT_3D ( 'NONE', #213, #122, #23 ) ;
#43 = DIRECTION ( 'NONE',  ( -3.491481338843133355E-15, 1.224646799147353207E-16, -1.000000000000000000 ) ) ;
#44 = CARTESIAN_POINT ( 'NONE',  ( 1.017982883880086812E-15, -3.570603303707219951E-17, 0.2915618859407637653 ) ) ;
#45 = EDGE_LOOP ( 'NONE', ( #68 ) ) ;
#46 = DIRECTION ( 'NONE',  ( -4.275831445896958607E-31, -1.000000000000000000, -1.224646799147353207E-16 ) ) ;
#47 = CIRCLE ( 'NONE', #16, 0.7500000000000000000 ) ;
#48 = PERSON_AND_ORGANIZATION ( #158, #219 ) ;
#49 = ADVANCED_FACE ( 'NONE', ( #211, #89 ), #94, .T. ) ;
#50 = CALENDAR_DATE ( 2021, 8, 10 ) ;
#51 = CARTESIAN_POINT ( 'NONE',  ( 3.142333204958820020E-14, 0.5049999999999981171, 9.000000000000000000 ) ) ;
#52 = ORIENTED_EDGE ( 'NONE', *, *, #183, .T. ) ;
#53 = APPROVAL_STATUS ( 'not_yet_approved' ) ;
#54 = EDGE_LOOP ( 'NONE', ( #167 ) ) ;
#55 = COORDINATED_UNIVERSAL_TIME_OFFSET ( 1, 0, .AHEAD. ) ;
#56 = DATE_AND_TIME ( #88, #210 ) ;
#57 = DIRECTION ( 'NONE',  ( 0.0000000000000000000, 1.000000000000000000, 0.0000000000000000000 ) ) ;
#58 = DIRECTION ( 'NONE',  ( 3.491481338843133355E-15, -1.224646799147353207E-16, 1.000000000000000000 ) ) ;
#59 = APPROVAL_ROLE ( '' ) ;
#60 = CALENDAR_DATE ( 2021, 8, 10 ) ;
#61 = CARTESIAN_POINT ( 'NONE',  ( 3.290495070236415207E-14, 0.7499999999999963363, 9.424352447854374759 ) ) ;
#62 = SECURITY_CLASSIFICATION_LEVEL ( 'unclassified' ) ;
#63 = CC_DESIGN_SECURITY_CLASSIFICATION ( #145, ( #100 ) ) ;
#64 = CIRCLE ( 'NONE', #73, 0.5049999999999988942 ) ;
#65 = ORIENTED_EDGE ( 'NONE', *, *, #183, .F. ) ;
#66 = EDGE_LOOP ( 'NONE', ( #52 ) ) ;
#67 = PERSON_AND_ORGANIZATION_ROLE ( 'classification_officer' ) ;
#68 = ORIENTED_EDGE ( 'NONE', *, *, #24, .T. ) ;
#69 = DIRECTION ( 'NONE',  ( -3.491481338843133355E-15, 1.224646799147353207E-16, -1.000000000000000000 ) ) ;
#70 = DIRECTION ( 'NONE',  ( -3.491481338843133355E-15, 1.224646799147353207E-16, -1.000000000000000000 ) ) ;
#71 = PRODUCT_DEFINITION ( 'UNKNOWN', '', #100, #8 ) ;
#72 = DIRECTION ( 'NONE',  ( -3.491481338843133355E-15, 1.224646799147353207E-16, -1.000000000000000000 ) ) ;
#73 = AXIS2_PLACEMENT_3D ( 'NONE', #44, #70, #173 ) ;
#74 = FACE_OUTER_BOUND ( 'NONE', #202, .T. ) ;
#75 = APPROVAL ( #180, 'UNSPECIFIED' ) ;
#76 = APPLICATION_CONTEXT ( 'configuration controlled 3d designs of mechanical parts and assemblies' ) ;
#77 = DIRECTION ( 'NONE',  ( 0.0000000000000000000, 0.0000000000000000000, 1.000000000000000000 ) ) ;
#78 = VERTEX_POINT ( 'NONE', #51 ) ;
#79 = PERSON_AND_ORGANIZATION_ROLE ( 'creator' ) ;
#80 = EDGE_LOOP ( 'NONE', ( #160 ) ) ;
#81 = AXIS2_PLACEMENT_3D ( 'NONE', #7, #124, #136 ) ;
#82 = PRODUCT_RELATED_PRODUCT_CATEGORY ( 'detail', '', ( #128 ) ) ;
#83 = ORIENTED_EDGE ( 'NONE', *, *, #168, .F. ) ;
#84 = CC_DESIGN_APPROVAL ( #38, ( #71 ) ) ;
#85 = CARTESIAN_POINT ( 'NONE',  ( 1.047444401652940007E-13, -3.673940397442059178E-15, 30.00000000000000000 ) ) ;
#86 = APPROVAL_PERSON_ORGANIZATION ( #37, #132, #118 ) ;
#87 = DIRECTION ( 'NONE',  ( -3.491481338843133355E-15, 1.224646799147353207E-16, -1.000000000000000000 ) ) ;
#88 = CALENDAR_DATE ( 2021, 8, 10 ) ;
#89 = FACE_BOUND ( 'NONE', #134, .T. ) ;
#90 = FACE_OUTER_BOUND ( 'NONE', #66, .T. ) ;
#91 = CLOSED_SHELL ( 'NONE', ( #197, #126, #194, #49, #2 ) ) ;
#92 = DIRECTION ( 'NONE',  ( 4.275831445896959482E-31, 1.000000000000000000, 1.224646799147353207E-16 ) ) ;
#93 = AXIS2_PLACEMENT_3D ( 'NONE', #113, #137, #57 ) ;
#94 = CONICAL_SURFACE ( 'NONE', #190, 0.5500000000000000444, 0.7853981633974512766 ) ;
#95 = PLANE ( 'NONE',  #81 ) ;
#96 = EDGE_LOOP ( 'NONE', ( #107 ) ) ;
#97 = APPROVAL_ROLE ( '' ) ;
#98 = MECHANICAL_CONTEXT ( 'NONE', #76, 'mechanical' ) ;
#99 = PERSON_AND_ORGANIZATION ( #158, #219 ) ;
#100 = PRODUCT_DEFINITION_FORMATION_WITH_SPECIFIED_SOURCE ( 'ANY', '', #128, .NOT_KNOWN. ) ;
#101 = EDGE_LOOP ( 'NONE', ( #83 ) ) ;
#102 = VERTEX_POINT ( 'NONE', #32 ) ;
#103 = CARTESIAN_POINT ( 'NONE',  ( 1.047444401652940007E-13, 4.124339402320052999E-33, 30.00000000000000000 ) ) ;
#104 = EDGE_CURVE ( 'NONE', #208, #208, #64, .T. ) ;
#105 = MANIFOLD_SOLID_BREP ( 'Corps-Déplacer/Copier1[2]', #217 ) ;
#106 = DATE_TIME_ROLE ( 'classification_date' ) ;
#107 = ORIENTED_EDGE ( 'NONE', *, *, #104, .T. ) ;
#108 = ORIENTED_EDGE ( 'NONE', *, *, #138, .T. ) ;
#109 = CYLINDRICAL_SURFACE ( 'NONE', #212, 0.5049999999999990052 ) ;
#110 = CARTESIAN_POINT ( 'NONE',  ( 3.142333204958820020E-14, -1.102182119232617714E-15, 9.000000000000000000 ) ) ;
#111 = DIRECTION ( 'NONE',  ( 0.0000000000000000000, 1.000000000000000000, 0.0000000000000000000 ) ) ;
#112 = CARTESIAN_POINT ( 'NONE',  ( 1.040461438975253740E-13, -3.649447461459112464E-15, 29.80000000000000071 ) ) ;
#113 = CARTESIAN_POINT ( 'NONE',  ( 3.290495070236415207E-14, -1.154150305930138373E-15, 9.424352447854374759 ) ) ;
#114 =( NAMED_UNIT ( * ) SI_UNIT ( $, .STERADIAN. ) SOLID_ANGLE_UNIT ( ) );
#115 = VERTEX_POINT ( 'NONE', #131 ) ;
#116 = CC_DESIGN_PERSON_AND_ORGANIZATION_ASSIGNMENT ( #200, #130, ( #128 ) ) ;
#117 = CONICAL_SURFACE ( 'NONE', #157, 0.7499999999999975575, 0.5235987755982947078 ) ;
#118 = APPROVAL_ROLE ( '' ) ;
#119 = EDGE_LOOP ( 'NONE', ( #108 ) ) ;
#120 = CC_DESIGN_DATE_AND_TIME_ASSIGNMENT ( #56, #106, ( #145 ) ) ;
#121 = ADVANCED_FACE ( 'NONE', ( #9, #155 ), #109, .T. ) ;
#122 = DIRECTION ( 'NONE',  ( 3.491481338843133355E-15, -1.224646799147353207E-16, 1.000000000000000000 ) ) ;
#123 = LOCAL_TIME ( 10, 12, 31.00000000000000000, #216 ) ;
#124 = DIRECTION ( 'NONE',  ( 3.491481338843133355E-15, -1.224646799147353207E-16, 1.000000000000000000 ) ) ;
#125 = DIRECTION ( 'NONE',  ( -3.491481338843133355E-15, 1.224646799147353207E-16, -1.000000000000000000 ) ) ;
#126 = ADVANCED_FACE ( 'NONE', ( #176, #175 ), #117, .T. ) ;
#127 = CARTESIAN_POINT ( 'NONE',  ( 1.017982883880087010E-15, 0.5049999999999988942, 0.2915618859407638208 ) ) ;
#128 = PRODUCT ( '957865', '957865', '', ( #98 ) ) ;
#129 = DATE_AND_TIME ( #60, #123 ) ;
#130 = PERSON_AND_ORGANIZATION_ROLE ( 'design_owner' ) ;
#131 = CARTESIAN_POINT ( 'NONE',  ( 1.047444401652940007E-13, 0.5499999999999963807, 30.00000000000000000 ) ) ;
#132 = APPROVAL ( #53, 'UNSPECIFIED' ) ;
#133 = CALENDAR_DATE ( 2021, 8, 10 ) ;
#134 = EDGE_LOOP ( 'NONE', ( #148 ) ) ;
#135 = DATE_AND_TIME ( #133, #31 ) ;
#136 = DIRECTION ( 'NONE',  ( -4.275831445896958607E-31, -1.000000000000000000, -1.224646799147353207E-16 ) ) ;
#137 = DIRECTION ( 'NONE',  ( -3.491481338843133355E-15, 1.224646799147353207E-16, -1.000000000000000000 ) ) ;
#138 = EDGE_CURVE ( 'NONE', #78, #78, #181, .T. ) ;
#139 = DIRECTION ( 'NONE',  ( 0.0000000000000000000, 1.000000000000000000, 0.0000000000000000000 ) ) ;
#140 = ADVANCED_FACE ( 'NONE', ( #171 ), #144, .T. ) ;
#141 = CARTESIAN_POINT ( 'NONE',  ( 0.0000000000000000000, 0.0000000000000000000, 0.0000000000000000000 ) ) ;
#142 = COORDINATED_UNIVERSAL_TIME_OFFSET ( 1, 0, .AHEAD. ) ;
#143 = APPROVAL_STATUS ( 'not_yet_approved' ) ;
#144 = CONICAL_SURFACE ( 'NONE', #42, 0.5049999999999988942, 1.047197551196592746 ) ;
#145 = SECURITY_CLASSIFICATION ( '', '', #62 ) ;
#146 = CALENDAR_DATE ( 2021, 8, 10 ) ;
#147 = AXIS2_PLACEMENT_3D ( 'NONE', #193, #43, #111 ) ;
#148 = ORIENTED_EDGE ( 'NONE', *, *, #168, .T. ) ;
#149 = EDGE_LOOP ( 'NONE', ( #65 ) ) ;
#150 = SHAPE_DEFINITION_REPRESENTATION ( #209, #12 ) ;
#151 = CC_DESIGN_APPROVAL ( #75, ( #100 ) ) ;
#152 = AXIS2_PLACEMENT_3D ( 'NONE', #196, #58, #46 ) ;
#153 = DIRECTION ( 'NONE',  ( 0.0000000000000000000, 1.000000000000000000, 0.0000000000000000000 ) ) ;
#154 = PLANE ( 'NONE',  #152 ) ;
#155 = FACE_OUTER_BOUND ( 'NONE', #45, .T. ) ;
#156 = FACE_OUTER_BOUND ( 'NONE', #119, .T. ) ;
#157 = AXIS2_PLACEMENT_3D ( 'NONE', #21, #191, #27 ) ;
#158 = PERSON ( 'UNSPECIFIED', 'UNSPECIFIED', 'UNSPECIFIED', ('UNSPECIFIED'), ('UNSPECIFIED'), ('UNSPECIFIED') ) ;
#159 = DIRECTION ( 'NONE',  ( -3.491481338843133355E-15, 1.224646799147353207E-16, -1.000000000000000000 ) ) ;
#160 = ORIENTED_EDGE ( 'NONE', *, *, #204, .T. ) ;
#161 = DATE_AND_TIME ( #146, #178 ) ;
#162 = APPROVAL_DATE_TIME ( #129, #75 ) ;
#163 = ADVANCED_FACE ( 'NONE', ( #195 ), #95, .T. ) ;
#164 = PERSON_AND_ORGANIZATION ( #158, #219 ) ;
#165 = APPLICATION_PROTOCOL_DEFINITION ( 'international standard', 'config_control_design', 1994, #76 ) ;
#166 = ORIENTED_EDGE ( 'NONE', *, *, #24, .F. ) ;
#167 = ORIENTED_EDGE ( 'NONE', *, *, #138, .F. ) ;
#168 = EDGE_CURVE ( 'NONE', #115, #115, #4, .T. ) ;
#169 = ORIENTED_EDGE ( 'NONE', *, *, #204, .F. ) ;
#170 = APPLICATION_CONTEXT ( 'configuration controlled 3d designs of mechanical parts and assemblies' ) ;
#171 = FACE_OUTER_BOUND ( 'NONE', #96, .T. ) ;
#172 = AXIS2_PLACEMENT_3D ( 'NONE', #110, #3, #153 ) ;
#173 = DIRECTION ( 'NONE',  ( 3.813722662152950816E-31, 1.000000000000000000, 1.073467497510402831E-16 ) ) ;
#174 = APPROVAL_PERSON_ORGANIZATION ( #164, #38, #59 ) ;
#175 = FACE_OUTER_BOUND ( 'NONE', #80, .T. ) ;
#176 = FACE_BOUND ( 'NONE', #54, .T. ) ;
#177 = AXIS2_PLACEMENT_3D ( 'NONE', #40, #69, #139 ) ;
#178 = LOCAL_TIME ( 10, 12, 31.00000000000000000, #15 ) ;
#179 = PERSON_AND_ORGANIZATION_ROLE ( 'creator' ) ;
#180 = APPROVAL_STATUS ( 'not_yet_approved' ) ;
#181 = CIRCLE ( 'NONE', #177, 0.5049999999999991163 ) ;
#182 = VERTEX_POINT ( 'NONE', #61 ) ;
#183 = EDGE_CURVE ( 'NONE', #102, #102, #47, .T. ) ;
#184 = APPROVAL_DATE_TIME ( #161, #38 ) ;
#185 = EDGE_LOOP ( 'NONE', ( #166 ) ) ;
#186 = AXIS2_PLACEMENT_3D ( 'NONE', #215, #77, #13 ) ;
#187 = EDGE_LOOP ( 'NONE', ( #221 ) ) ;
#188 = CC_DESIGN_APPROVAL ( #132, ( #145 ) ) ;
#189 = CIRCLE ( 'NONE', #93, 0.7499999999999975575 ) ;
#190 = AXIS2_PLACEMENT_3D ( 'NONE', #85, #87, #222 ) ;
#191 = DIRECTION ( 'NONE',  ( 3.491481338843133355E-15, -1.224646799147353207E-16, 1.000000000000000000 ) ) ;
#192 = CARTESIAN_POINT ( 'NONE',  ( 0.0000000000000000000, 0.0000000000000000000, 0.0000000000000000000 ) ) ;
#193 = CARTESIAN_POINT ( 'NONE',  ( 1.047444401652940007E-13, -3.673940397442059178E-15, 30.00000000000000000 ) ) ;
#194 = ADVANCED_FACE ( 'NONE', ( #74, #90 ), #214, .T. ) ;
#195 = FACE_OUTER_BOUND ( 'NONE', #185, .T. ) ;
#196 = CARTESIAN_POINT ( 'NONE',  ( 3.142333204958820020E-14, 3.786893451221168154E-33, 9.000000000000000000 ) ) ;
#197 = ADVANCED_FACE ( 'NONE', ( #156 ), #154, .F. ) ;
#198 = DATE_AND_TIME ( #50, #207 ) ;
#199 = PERSON_AND_ORGANIZATION ( #158, #219 ) ;
#200 = PERSON_AND_ORGANIZATION ( #158, #219 ) ;
#201 = CC_DESIGN_PERSON_AND_ORGANIZATION_ASSIGNMENT ( #99, #220, ( #100 ) ) ;
#202 = EDGE_LOOP ( 'NONE', ( #169 ) ) ;
#203 = COORDINATED_UNIVERSAL_TIME_OFFSET ( 1, 0, .AHEAD. ) ;
#204 = EDGE_CURVE ( 'NONE', #182, #182, #189, .T. ) ;
#205 = VERTEX_POINT ( 'NONE', #5 ) ;
#206 = CC_DESIGN_DATE_AND_TIME_ASSIGNMENT ( #198, #28, ( #71 ) ) ;
#207 = LOCAL_TIME ( 10, 12, 31.00000000000000000, #142 ) ;
#208 = VERTEX_POINT ( 'NONE', #127 ) ;
#209 = PRODUCT_DEFINITION_SHAPE ( 'NONE', 'NONE',  #71 ) ;
#210 = LOCAL_TIME ( 10, 12, 31.00000000000000000, #55 ) ;
#211 = FACE_OUTER_BOUND ( 'NONE', #149, .T. ) ;
#212 = AXIS2_PLACEMENT_3D ( 'NONE', #192, #159, #11 ) ;
#213 = CARTESIAN_POINT ( 'NONE',  ( 1.017982883880086812E-15, -3.570603303707219951E-17, 0.2915618859407637653 ) ) ;
#214 = CYLINDRICAL_SURFACE ( 'NONE', #35, 0.7499999999999986677 ) ;
#215 = CARTESIAN_POINT ( 'NONE',  ( 0.0000000000000000000, 0.0000000000000000000, 0.0000000000000000000 ) ) ;
#216 = COORDINATED_UNIVERSAL_TIME_OFFSET ( 1, 0, .AHEAD. ) ;
#217 = CLOSED_SHELL ( 'NONE', ( #140, #121, #163 ) ) ;
#218 =( NAMED_UNIT ( * ) PLANE_ANGLE_UNIT ( ) SI_UNIT ( $, .RADIAN. ) );
#219 = ORGANIZATION ( 'UNSPECIFIED', 'UNSPECIFIED', '' ) ;
#220 = PERSON_AND_ORGANIZATION_ROLE ( 'design_supplier' ) ;
#221 = ORIENTED_EDGE ( 'NONE', *, *, #104, .F. ) ;
#222 = DIRECTION ( 'NONE',  ( 0.0000000000000000000, 1.000000000000000000, 0.0000000000000000000 ) ) ;
#223 = APPROVAL_PERSON_ORGANIZATION ( #199, #75, #97 ) ;
ENDSEC;
END-ISO-10303-21;
