ISO-10303-21;
HEADER;
FILE_DESCRIPTION (( 'STEP AP203' ),
    '1' );
FILE_NAME ('957834.step',
    '2021-10-08T08:12:29',
    ( '' ),
    ( '' ),
    'SwSTEP 2.0',
    'SolidWorks 2019',
    '' );
FILE_SCHEMA (( 'CONFIG_CONTROL_DESIGN' ));
ENDSEC;

DATA;
#1 = DIRECTION ( 'NONE',  ( -4.275831445896958607E-31, -1.000000000000000000, -1.224646799147353207E-16 ) ) ;
#2 = CARTESIAN_POINT ( 'NONE',  ( 1.043952920314096810E-13, -3.661693929450586610E-15, 29.89999999999999858 ) ) ;
#3 = EDGE_LOOP ( 'NONE', ( #45 ) ) ;
#4 = ORIENTED_EDGE ( 'NONE', *, *, #220, .T. ) ;
#5 = ORIENTED_EDGE ( 'NONE', *, *, #199, .T. ) ;
#6 = DESIGN_CONTEXT ( 'detailed design', #162, 'design' ) ;
#7 = CC_DESIGN_DATE_AND_TIME_ASSIGNMENT ( #117, #185, ( #42 ) ) ;
#8 = APPLICATION_PROTOCOL_DEFINITION ( 'international standard', 'config_control_design', 1994, #183 ) ;
#9 = CIRCLE ( 'NONE', #71, 0.4949999999999988853 ) ;
#10 = CARTESIAN_POINT ( 'NONE',  ( 3.142333204958820651E-14, 0.4950000000000002176, 9.000000000000001776 ) ) ;
#11 = CARTESIAN_POINT ( 'NONE',  ( 1.043952920314096810E-13, 0.7499999999999963363, 29.89999999999999858 ) ) ;
#12 = SECURITY_CLASSIFICATION ( '', '', #66 ) ;
#13 = DIRECTION ( 'NONE',  ( 0.0000000000000000000, 1.000000000000000000, 0.0000000000000000000 ) ) ;
#14 = FACE_OUTER_BOUND ( 'NONE', #171, .T. ) ;
#15 = CARTESIAN_POINT ( 'NONE',  ( 3.296542493308970847E-14, 0.7499999999999963363, 9.441672955930064504 ) ) ;
#16 = DIRECTION ( 'NONE',  ( 0.0000000000000000000, 1.000000000000000000, 0.0000000000000000000 ) ) ;
#17 = CC_DESIGN_PERSON_AND_ORGANIZATION_ASSIGNMENT ( #106, #87, ( #12 ) ) ;
#18 = CC_DESIGN_DATE_AND_TIME_ASSIGNMENT ( #63, #137, ( #12 ) ) ;
#19 = CALENDAR_DATE ( 2021, 8, 10 ) ;
#20 = CARTESIAN_POINT ( 'NONE',  ( 3.142333204958820651E-14, -2.087304497639886455E-31, 9.000000000000001776 ) ) ;
#21 = PERSON_AND_ORGANIZATION ( #149, #25 ) ;
#22 = CARTESIAN_POINT ( 'NONE',  ( 3.142333204958820651E-14, -1.102182119232617911E-15, 9.000000000000001776 ) ) ;
#23 = EDGE_CURVE ( 'NONE', #111, #111, #176, .T. ) ;
#24 = EDGE_LOOP ( 'NONE', ( #4 ) ) ;
#25 = ORGANIZATION ( 'UNSPECIFIED', 'UNSPECIFIED', '' ) ;
#26 = APPROVAL_PERSON_ORGANIZATION ( #119, #132, #141 ) ;
#27 = DIRECTION ( 'NONE',  ( 3.491481338843133355E-15, -1.224646799147353207E-16, 1.000000000000000000 ) ) ;
#28 = ORIENTED_EDGE ( 'NONE', *, *, #169, .F. ) ;
#29 = DIRECTION ( 'NONE',  ( -3.491481338843133355E-15, 1.224646799147353207E-16, -1.000000000000000000 ) ) ;
#30 = DIRECTION ( 'NONE',  ( -3.491481338843133355E-15, 1.224646799147353207E-16, -1.000000000000000000 ) ) ;
#31 = APPROVAL_ROLE ( '' ) ;
#32 = FACE_OUTER_BOUND ( 'NONE', #211, .T. ) ;
#33 = ADVANCED_FACE ( 'NONE', ( #217, #179 ), #133, .T. ) ;
#34 = PERSON_AND_ORGANIZATION ( #149, #25 ) ;
#35 = DIRECTION ( 'NONE',  ( -3.491481338843133355E-15, 1.224646799147353207E-16, -1.000000000000000000 ) ) ;
#36 = CIRCLE ( 'NONE', #194, 0.4950000000000012723 ) ;
#37 = EDGE_LOOP ( 'NONE', ( #118 ) ) ;
#38 = PERSON_AND_ORGANIZATION_ROLE ( 'creator' ) ;
#39 = EDGE_CURVE ( 'NONE', #178, #178, #124, .T. ) ;
#40 = APPROVAL_DATE_TIME ( #174, #132 ) ;
#41 = LOCAL_TIME ( 10, 12, 29.00000000000000000, #61 ) ;
#42 = PRODUCT_DEFINITION ( 'UNKNOWN', '', #188, #6 ) ;
#43 = AXIS2_PLACEMENT_3D ( 'NONE', #2, #113, #180 ) ;
#44 = PERSON_AND_ORGANIZATION_ROLE ( 'design_owner' ) ;
#45 = ORIENTED_EDGE ( 'NONE', *, *, #23, .F. ) ;
#46 = CARTESIAN_POINT ( 'NONE',  ( 1.047444401652940007E-13, -3.673940397442059178E-15, 30.00000000000000000 ) ) ;
#47 = CARTESIAN_POINT ( 'NONE',  ( 9.978248069715701168E-16, -3.499898287792225631E-17, 0.2857883832488674059 ) ) ;
#48 = CALENDAR_DATE ( 2021, 8, 10 ) ;
#49 = ORIENTED_EDGE ( 'NONE', *, *, #140, .T. ) ;
#50 = PERSON_AND_ORGANIZATION ( #149, #25 ) ;
#51 = CARTESIAN_POINT ( 'NONE',  ( 3.296542493308970847E-14, -1.156271456407588264E-15, 9.441672955930064504 ) ) ;
#52 = EDGE_LOOP ( 'NONE', ( #5 ) ) ;
#53 =( GEOMETRIC_REPRESENTATION_CONTEXT ( 3 ) GLOBAL_UNCERTAINTY_ASSIGNED_CONTEXT ( ( #182 ) ) GLOBAL_UNIT_ASSIGNED_CONTEXT ( ( #216, #94, #214 ) ) REPRESENTATION_CONTEXT ( 'NONE', 'WORKASPACE' ) );
#54 = CC_DESIGN_PERSON_AND_ORGANIZATION_ASSIGNMENT ( #168, #38, ( #188 ) ) ;
#55 = CARTESIAN_POINT ( 'NONE',  ( 9.978248069715703140E-16, 0.4949999999999988853, 0.2857883832488674614 ) ) ;
#56 = CLOSED_SHELL ( 'NONE', ( #72, #130, #210 ) ) ;
#57 = VERTEX_POINT ( 'NONE', #177 ) ;
#58 = DIRECTION ( 'NONE',  ( 0.0000000000000000000, -1.000000000000000000, 0.0000000000000000000 ) ) ;
#59 = PERSON_AND_ORGANIZATION ( #149, #25 ) ;
#60 = PLANE ( 'NONE',  #175 ) ;
#61 = COORDINATED_UNIVERSAL_TIME_OFFSET ( 1, 0, .AHEAD. ) ;
#62 = FACE_OUTER_BOUND ( 'NONE', #164, .T. ) ;
#63 = DATE_AND_TIME ( #68, #123 ) ;
#64 = COORDINATED_UNIVERSAL_TIME_OFFSET ( 1, 0, .AHEAD. ) ;
#65 = FACE_BOUND ( 'NONE', #37, .T. ) ;
#66 = SECURITY_CLASSIFICATION_LEVEL ( 'unclassified' ) ;
#67 = CARTESIAN_POINT ( 'NONE',  ( 0.0000000000000000000, 0.0000000000000000000, 0.0000000000000000000 ) ) ;
#68 = CALENDAR_DATE ( 2021, 8, 10 ) ;
#69 = ORIENTED_EDGE ( 'NONE', *, *, #220, .F. ) ;
#70 = AXIS2_PLACEMENT_3D ( 'NONE', #110, #27, #75 ) ;
#71 = AXIS2_PLACEMENT_3D ( 'NONE', #47, #30, #170 ) ;
#72 = ADVANCED_FACE ( 'NONE', ( #14 ), #173, .T. ) ;
#73 = SHAPE_DEFINITION_REPRESENTATION ( #191, #86 ) ;
#74 = AXIS2_PLACEMENT_3D ( 'NONE', #219, #184, #95 ) ;
#75 = DIRECTION ( 'NONE',  ( -4.275831445896958607E-31, -1.000000000000000000, -1.224646799147353207E-16 ) ) ;
#76 = PRODUCT ( '957834', '957834', '', ( #147 ) ) ;
#77 = LOCAL_TIME ( 10, 12, 29.00000000000000000, #64 ) ;
#78 = FACE_BOUND ( 'NONE', #104, .T. ) ;
#79 = ADVANCED_FACE ( 'NONE', ( #78, #32 ), #197, .T. ) ;
#80 = VERTEX_POINT ( 'NONE', #11 ) ;
#81 = DIRECTION ( 'NONE',  ( -3.491481338843133355E-15, 1.224646799147353207E-16, -1.000000000000000000 ) ) ;
#82 = FACE_OUTER_BOUND ( 'NONE', #105, .T. ) ;
#83 = DIRECTION ( 'NONE',  ( 3.491481338843133355E-15, -1.224646799147353207E-16, 1.000000000000000000 ) ) ;
#84 = APPROVAL_STATUS ( 'not_yet_approved' ) ;
#85 = DIRECTION ( 'NONE',  ( -3.491481338843133355E-15, 1.224646799147353207E-16, -1.000000000000000000 ) ) ;
#86 = ADVANCED_BREP_SHAPE_REPRESENTATION ( '957834', ( #190, #189, #116 ), #53 ) ;
#87 = PERSON_AND_ORGANIZATION_ROLE ( 'classification_officer' ) ;
#88 = ADVANCED_FACE ( 'NONE', ( #101 ), #60, .F. ) ;
#89 = AXIS2_PLACEMENT_3D ( 'NONE', #165, #35, #102 ) ;
#90 = LOCAL_TIME ( 10, 12, 29.00000000000000000, #100 ) ;
#91 = DIRECTION ( 'NONE',  ( 1.000000000000000000, 0.0000000000000000000, 0.0000000000000000000 ) ) ;
#92 = CARTESIAN_POINT ( 'NONE',  ( 9.978248069715701168E-16, -3.499898287792225631E-17, 0.2857883832488674059 ) ) ;
#93 = APPROVAL_PERSON_ORGANIZATION ( #50, #192, #31 ) ;
#94 =( NAMED_UNIT ( * ) PLANE_ANGLE_UNIT ( ) SI_UNIT ( $, .RADIAN. ) );
#95 = DIRECTION ( 'NONE',  ( 4.275831445896958607E-31, 1.000000000000000000, 1.224646799147353207E-16 ) ) ;
#96 = AXIS2_PLACEMENT_3D ( 'NONE', #167, #200, #207 ) ;
#97 = ORIENTED_EDGE ( 'NONE', *, *, #39, .F. ) ;
#98 = PERSON_AND_ORGANIZATION_ROLE ( 'design_supplier' ) ;
#99 = CC_DESIGN_PERSON_AND_ORGANIZATION_ASSIGNMENT ( #34, #206, ( #42 ) ) ;
#100 = COORDINATED_UNIVERSAL_TIME_OFFSET ( 1, 0, .AHEAD. ) ;
#101 = FACE_OUTER_BOUND ( 'NONE', #24, .T. ) ;
#102 = DIRECTION ( 'NONE',  ( 4.275831445896958607E-31, 1.000000000000000000, 1.224646799147353207E-16 ) ) ;
#103 = CIRCLE ( 'NONE', #43, 0.7500000000000000000 ) ;
#104 = EDGE_LOOP ( 'NONE', ( #69 ) ) ;
#105 = EDGE_LOOP ( 'NONE', ( #172 ) ) ;
#106 = PERSON_AND_ORGANIZATION ( #149, #25 ) ;
#107 = PRODUCT_RELATED_PRODUCT_CATEGORY ( 'detail', '', ( #76 ) ) ;
#108 = AXIS2_PLACEMENT_3D ( 'NONE', #51, #134, #58 ) ;
#109 = CC_DESIGN_SECURITY_CLASSIFICATION ( #12, ( #188 ) ) ;
#110 = CARTESIAN_POINT ( 'NONE',  ( 3.142333204958820651E-14, -2.087304497639886455E-31, 9.000000000000001776 ) ) ;
#111 = VERTEX_POINT ( 'NONE', #15 ) ;
#112 = ORIENTED_EDGE ( 'NONE', *, *, #169, .T. ) ;
#113 = DIRECTION ( 'NONE',  ( -3.491481338843133355E-15, 1.224646799147353207E-16, -1.000000000000000000 ) ) ;
#114 = APPROVAL_DATE_TIME ( #135, #128 ) ;
#115 = DIRECTION ( 'NONE',  ( 0.0000000000000000000, 1.000000000000000000, 0.0000000000000000000 ) ) ;
#116 = AXIS2_PLACEMENT_3D ( 'NONE', #152, #198, #91 ) ;
#117 = DATE_AND_TIME ( #48, #77 ) ;
#118 = ORIENTED_EDGE ( 'NONE', *, *, #39, .T. ) ;
#119 = PERSON_AND_ORGANIZATION ( #149, #25 ) ;
#120 = CALENDAR_DATE ( 2021, 8, 10 ) ;
#121 = FACE_OUTER_BOUND ( 'NONE', #127, .T. ) ;
#122 = ADVANCED_FACE ( 'NONE', ( #82, #65 ), #213, .T. ) ;
#123 = LOCAL_TIME ( 10, 12, 29.00000000000000000, #223 ) ;
#124 = CIRCLE ( 'NONE', #96, 0.6500000000000000222 ) ;
#125 = ADVANCED_FACE ( 'NONE', ( #155 ), #139, .F. ) ;
#126 = APPROVAL_DATE_TIME ( #138, #192 ) ;
#127 = EDGE_LOOP ( 'NONE', ( #112 ) ) ;
#128 = APPROVAL ( #201, 'UNSPECIFIED' ) ;
#129 = CARTESIAN_POINT ( 'NONE',  ( 1.047444401652940007E-13, 0.6499999999999962474, 30.00000000000000000 ) ) ;
#130 = ADVANCED_FACE ( 'NONE', ( #202, #121 ), #222, .T. ) ;
#131 = AXIS2_PLACEMENT_3D ( 'NONE', #67, #29, #166 ) ;
#132 = APPROVAL ( #84, 'UNSPECIFIED' ) ;
#133 = CYLINDRICAL_SURFACE ( 'NONE', #131, 0.7499999999999986677 ) ;
#134 = DIRECTION ( 'NONE',  ( 3.491481338843133355E-15, -1.224646799147353207E-16, 1.000000000000000000 ) ) ;
#135 = DATE_AND_TIME ( #120, #41 ) ;
#136 = PLANE ( 'NONE',  #70 ) ;
#137 = DATE_TIME_ROLE ( 'classification_date' ) ;
#138 = DATE_AND_TIME ( #19, #90 ) ;
#139 = PLANE ( 'NONE',  #74 ) ;
#140 = EDGE_CURVE ( 'NONE', #163, #163, #9, .T. ) ;
#141 = APPROVAL_ROLE ( '' ) ;
#142 = AXIS2_PLACEMENT_3D ( 'NONE', #22, #85, #158 ) ;
#143 = CC_DESIGN_PERSON_AND_ORGANIZATION_ASSIGNMENT ( #196, #44, ( #76 ) ) ;
#144 = COORDINATED_UNIVERSAL_TIME_OFFSET ( 1, 0, .AHEAD. ) ;
#145 = CALENDAR_DATE ( 2021, 8, 10 ) ;
#146 = APPROVAL_PERSON_ORGANIZATION ( #59, #128, #221 ) ;
#147 = MECHANICAL_CONTEXT ( 'NONE', #183, 'mechanical' ) ;
#148 = LOCAL_TIME ( 10, 12, 29.00000000000000000, #144 ) ;
#149 = PERSON ( 'UNSPECIFIED', 'UNSPECIFIED', 'UNSPECIFIED', ('UNSPECIFIED'), ('UNSPECIFIED'), ('UNSPECIFIED') ) ;
#150 = CARTESIAN_POINT ( 'NONE',  ( 3.142333204958820651E-14, -1.102182119232617911E-15, 9.000000000000001776 ) ) ;
#151 = ORIENTED_EDGE ( 'NONE', *, *, #140, .F. ) ;
#152 = CARTESIAN_POINT ( 'NONE',  ( 0.0000000000000000000, 0.0000000000000000000, 0.0000000000000000000 ) ) ;
#153 = DIRECTION ( 'NONE',  ( -3.890767564418666839E-31, -1.000000000000000000, -1.095153709581320017E-16 ) ) ;
#154 = CC_DESIGN_PERSON_AND_ORGANIZATION_ASSIGNMENT ( #21, #98, ( #188 ) ) ;
#155 = FACE_OUTER_BOUND ( 'NONE', #161, .T. ) ;
#156 = APPROVAL_STATUS ( 'not_yet_approved' ) ;
#157 = DIRECTION ( 'NONE',  ( -3.491481338843133355E-15, 1.224646799147353207E-16, -1.000000000000000000 ) ) ;
#158 = DIRECTION ( 'NONE',  ( 0.0000000000000000000, 1.000000000000000000, 0.0000000000000000000 ) ) ;
#159 = ORIENTED_EDGE ( 'NONE', *, *, #23, .T. ) ;
#160 = AXIS2_PLACEMENT_3D ( 'NONE', #46, #81, #115 ) ;
#161 = EDGE_LOOP ( 'NONE', ( #97 ) ) ;
#162 = APPLICATION_CONTEXT ( 'configuration controlled 3d designs of mechanical parts and assemblies' ) ;
#163 = VERTEX_POINT ( 'NONE', #55 ) ;
#164 = EDGE_LOOP ( 'NONE', ( #28 ) ) ;
#165 = CARTESIAN_POINT ( 'NONE',  ( 0.0000000000000000000, 0.0000000000000000000, 0.0000000000000000000 ) ) ;
#166 = DIRECTION ( 'NONE',  ( 4.275831445896959482E-31, 1.000000000000000000, 1.224646799147353207E-16 ) ) ;
#167 = CARTESIAN_POINT ( 'NONE',  ( 1.047444401652940007E-13, -3.673940397442059178E-15, 30.00000000000000000 ) ) ;
#168 = PERSON_AND_ORGANIZATION ( #149, #25 ) ;
#169 = EDGE_CURVE ( 'NONE', #57, #57, #209, .T. ) ;
#170 = DIRECTION ( 'NONE',  ( 3.890767564418666839E-31, 1.000000000000000000, 1.095153709581320017E-16 ) ) ;
#171 = EDGE_LOOP ( 'NONE', ( #49 ) ) ;
#172 = ORIENTED_EDGE ( 'NONE', *, *, #199, .F. ) ;
#173 = CONICAL_SURFACE ( 'NONE', #203, 0.4949999999999988853, 1.047197551196592746 ) ;
#174 = DATE_AND_TIME ( #145, #148 ) ;
#175 = AXIS2_PLACEMENT_3D ( 'NONE', #20, #187, #1 ) ;
#176 = CIRCLE ( 'NONE', #212, 0.7499999999999975575 ) ;
#177 = CARTESIAN_POINT ( 'NONE',  ( 3.142333204958820651E-14, 0.4950000000000002176, 9.000000000000001776 ) ) ;
#178 = VERTEX_POINT ( 'NONE', #129 ) ;
#179 = FACE_OUTER_BOUND ( 'NONE', #52, .T. ) ;
#180 = DIRECTION ( 'NONE',  ( 0.0000000000000000000, 1.000000000000000000, 0.0000000000000000000 ) ) ;
#181 = CC_DESIGN_APPROVAL ( #128, ( #42 ) ) ;
#182 = UNCERTAINTY_MEASURE_WITH_UNIT (LENGTH_MEASURE( 1.000000000000000082E-05 ), #216, 'distance_accuracy_value', 'NONE');
#183 = APPLICATION_CONTEXT ( 'configuration controlled 3d designs of mechanical parts and assemblies' ) ;
#184 = DIRECTION ( 'NONE',  ( -3.491481338843133355E-15, 1.224646799147353207E-16, -1.000000000000000000 ) ) ;
#185 = DATE_TIME_ROLE ( 'creation_date' ) ;
#186 = CARTESIAN_POINT ( 'NONE',  ( 3.296542493308970847E-14, -1.156271456407588264E-15, 9.441672955930064504 ) ) ;
#187 = DIRECTION ( 'NONE',  ( 3.491481338843133355E-15, -1.224646799147353207E-16, 1.000000000000000000 ) ) ;
#188 = PRODUCT_DEFINITION_FORMATION_WITH_SPECIFIED_SOURCE ( 'ANY', '', #76, .NOT_KNOWN. ) ;
#189 = MANIFOLD_SOLID_BREP ( 'Corps-Déplacer/Copier1[2]', #56 ) ;
#190 = MANIFOLD_SOLID_BREP ( 'Corps-Déplacer/Copier1[1]', #193 ) ;
#191 = PRODUCT_DEFINITION_SHAPE ( 'NONE', 'NONE',  #42 ) ;
#192 = APPROVAL ( #156, 'UNSPECIFIED' ) ;
#193 = CLOSED_SHELL ( 'NONE', ( #88, #79, #33, #122, #125 ) ) ;
#194 = AXIS2_PLACEMENT_3D ( 'NONE', #150, #218, #13 ) ;
#195 = VERTEX_POINT ( 'NONE', #10 ) ;
#196 = PERSON_AND_ORGANIZATION ( #149, #25 ) ;
#197 = CONICAL_SURFACE ( 'NONE', #108, 0.7499999999999975575, 0.5235987755982930425 ) ;
#198 = DIRECTION ( 'NONE',  ( 0.0000000000000000000, 0.0000000000000000000, 1.000000000000000000 ) ) ;
#199 = EDGE_CURVE ( 'NONE', #80, #80, #103, .T. ) ;
#200 = DIRECTION ( 'NONE',  ( -3.491481338843133355E-15, 1.224646799147353207E-16, -1.000000000000000000 ) ) ;
#201 = APPROVAL_STATUS ( 'not_yet_approved' ) ;
#202 = FACE_OUTER_BOUND ( 'NONE', #205, .T. ) ;
#203 = AXIS2_PLACEMENT_3D ( 'NONE', #92, #83, #153 ) ;
#204 = APPLICATION_PROTOCOL_DEFINITION ( 'international standard', 'config_control_design', 1994, #162 ) ;
#205 = EDGE_LOOP ( 'NONE', ( #151 ) ) ;
#206 = PERSON_AND_ORGANIZATION_ROLE ( 'creator' ) ;
#207 = DIRECTION ( 'NONE',  ( 0.0000000000000000000, 1.000000000000000000, 0.0000000000000000000 ) ) ;
#208 = CC_DESIGN_APPROVAL ( #132, ( #12 ) ) ;
#209 = CIRCLE ( 'NONE', #142, 0.4950000000000012723 ) ;
#210 = ADVANCED_FACE ( 'NONE', ( #62 ), #136, .T. ) ;
#211 = EDGE_LOOP ( 'NONE', ( #159 ) ) ;
#212 = AXIS2_PLACEMENT_3D ( 'NONE', #186, #157, #16 ) ;
#213 = CONICAL_SURFACE ( 'NONE', #160, 0.6500000000000000222, 0.7853981633974516097 ) ;
#214 =( NAMED_UNIT ( * ) SI_UNIT ( $, .STERADIAN. ) SOLID_ANGLE_UNIT ( ) );
#215 = CC_DESIGN_APPROVAL ( #192, ( #188 ) ) ;
#216 =( LENGTH_UNIT ( ) NAMED_UNIT ( * ) SI_UNIT ( .MILLI., .METRE. ) );
#217 = FACE_OUTER_BOUND ( 'NONE', #3, .T. ) ;
#218 = DIRECTION ( 'NONE',  ( -3.491481338843133355E-15, 1.224646799147353207E-16, -1.000000000000000000 ) ) ;
#219 = CARTESIAN_POINT ( 'NONE',  ( 1.047444401652940007E-13, 4.874219293650981803E-33, 30.00000000000000000 ) ) ;
#220 = EDGE_CURVE ( 'NONE', #195, #195, #36, .T. ) ;
#221 = APPROVAL_ROLE ( '' ) ;
#222 = CYLINDRICAL_SURFACE ( 'NONE', #89, 0.4950000000000001066 ) ;
#223 = COORDINATED_UNIVERSAL_TIME_OFFSET ( 1, 0, .AHEAD. ) ;
ENDSEC;
END-ISO-10303-21;
