ISO-10303-21;
HEADER;
FILE_DESCRIPTION (( 'STEP AP203' ),
    '1' );
FILE_NAME ('957831.step',
    '2021-10-08T08:12:28',
    ( '' ),
    ( '' ),
    'SwSTEP 2.0',
    'SolidWorks 2019',
    '' );
FILE_SCHEMA (( 'CONFIG_CONTROL_DESIGN' ));
ENDSEC;

DATA;
#1 = ADVANCED_FACE ( 'NONE', ( #75 ), #145, .F. ) ;
#2 = PERSON_AND_ORGANIZATION ( #136, #152 ) ;
#3 = DATE_AND_TIME ( #176, #27 ) ;
#4 = AXIS2_PLACEMENT_3D ( 'NONE', #9, #217, #137 ) ;
#5 = EDGE_LOOP ( 'NONE', ( #194 ) ) ;
#6 =( GEOMETRIC_REPRESENTATION_CONTEXT ( 3 ) GLOBAL_UNCERTAINTY_ASSIGNED_CONTEXT ( ( #8 ) ) GLOBAL_UNIT_ASSIGNED_CONTEXT ( ( #222, #35, #191 ) ) REPRESENTATION_CONTEXT ( 'NONE', 'WORKASPACE' ) );
#7 = EDGE_LOOP ( 'NONE', ( #177 ) ) ;
#8 = UNCERTAINTY_MEASURE_WITH_UNIT (LENGTH_MEASURE( 1.000000000000000082E-05 ), #222, 'distance_accuracy_value', 'NONE');
#9 = CARTESIAN_POINT ( 'NONE',  ( 3.142333204958820020E-14, 3.674411467521536907E-33, 9.000000000000000000 ) ) ;
#10 = FACE_OUTER_BOUND ( 'NONE', #115, .T. ) ;
#11 = EDGE_CURVE ( 'NONE', #151, #151, #140, .T. ) ;
#12 = CYLINDRICAL_SURFACE ( 'NONE', #112, 0.4899999999999995470 ) ;
#13 = FACE_BOUND ( 'NONE', #166, .T. ) ;
#14 = EDGE_CURVE ( 'NONE', #183, #183, #205, .T. ) ;
#15 = PRODUCT_RELATED_PRODUCT_CATEGORY ( 'detail', '', ( #131 ) ) ;
#16 = CARTESIAN_POINT ( 'NONE',  ( 3.299566204845248351E-14, 0.7499999999999963363, 9.450333209967908488 ) ) ;
#17 = DATE_AND_TIME ( #175, #174 ) ;
#18 = COORDINATED_UNIVERSAL_TIME_OFFSET ( 1, 0, .AHEAD. ) ;
#19 = AXIS2_PLACEMENT_3D ( 'NONE', #211, #63, #170 ) ;
#20 = APPROVAL_STATUS ( 'not_yet_approved' ) ;
#21 = PRODUCT_DEFINITION ( 'UNKNOWN', '', #120, #190 ) ;
#22 = PERSON_AND_ORGANIZATION ( #136, #152 ) ;
#23 = EDGE_LOOP ( 'NONE', ( #110 ) ) ;
#24 = DIRECTION ( 'NONE',  ( 0.0000000000000000000, 1.000000000000000000, 0.0000000000000000000 ) ) ;
#25 = DIRECTION ( 'NONE',  ( 3.491481338843133355E-15, -1.224646799147353207E-16, 1.000000000000000000 ) ) ;
#26 = CARTESIAN_POINT ( 'NONE',  ( 3.142333204958820020E-14, 3.674411467521536907E-33, 9.000000000000000000 ) ) ;
#27 = LOCAL_TIME ( 10, 12, 28.00000000000000000, #198 ) ;
#28 = FACE_OUTER_BOUND ( 'NONE', #51, .T. ) ;
#29 = DIRECTION ( 'NONE',  ( 0.0000000000000000000, 1.000000000000000000, 0.0000000000000000000 ) ) ;
#30 = VERTEX_POINT ( 'NONE', #160 ) ;
#31 = CIRCLE ( 'NONE', #207, 0.7499999999999975575 ) ;
#32 = VERTEX_POINT ( 'NONE', #105 ) ;
#33 = CC_DESIGN_PERSON_AND_ORGANIZATION_ASSIGNMENT ( #22, #142, ( #120 ) ) ;
#34 = CC_DESIGN_SECURITY_CLASSIFICATION ( #55, ( #120 ) ) ;
#35 =( NAMED_UNIT ( * ) PLANE_ANGLE_UNIT ( ) SI_UNIT ( $, .RADIAN. ) );
#36 = PERSON_AND_ORGANIZATION_ROLE ( 'classification_officer' ) ;
#37 = APPROVAL_ROLE ( '' ) ;
#38 = CLOSED_SHELL ( 'NONE', ( #109, #141, #187 ) ) ;
#39 = EDGE_LOOP ( 'NONE', ( #127 ) ) ;
#40 = APPROVAL_ROLE ( '' ) ;
#41 = ORIENTED_EDGE ( 'NONE', *, *, #14, .F. ) ;
#42 = AXIS2_PLACEMENT_3D ( 'NONE', #26, #219, #102 ) ;
#43 = DIRECTION ( 'NONE',  ( 0.0000000000000000000, 1.000000000000000000, 0.0000000000000000000 ) ) ;
#44 = FACE_OUTER_BOUND ( 'NONE', #96, .T. ) ;
#45 = FACE_OUTER_BOUND ( 'NONE', #197, .T. ) ;
#46 = LOCAL_TIME ( 10, 12, 28.00000000000000000, #18 ) ;
#47 = DIRECTION ( 'NONE',  ( -3.491481338843133355E-15, 1.224646799147353207E-16, -1.000000000000000000 ) ) ;
#48 = DIRECTION ( 'NONE',  ( 1.000000000000000000, 0.0000000000000000000, 0.0000000000000000000 ) ) ;
#49 = APPROVAL_PERSON_ORGANIZATION ( #50, #66, #40 ) ;
#50 = PERSON_AND_ORGANIZATION ( #136, #152 ) ;
#51 = EDGE_LOOP ( 'NONE', ( #56 ) ) ;
#52 = PERSON_AND_ORGANIZATION_ROLE ( 'design_owner' ) ;
#53 = EDGE_CURVE ( 'NONE', #189, #189, #221, .T. ) ;
#54 = DATE_TIME_ROLE ( 'classification_date' ) ;
#55 = SECURITY_CLASSIFICATION ( '', '', #130 ) ;
#56 = ORIENTED_EDGE ( 'NONE', *, *, #14, .T. ) ;
#57 = CC_DESIGN_PERSON_AND_ORGANIZATION_ASSIGNMENT ( #113, #36, ( #55 ) ) ;
#58 = DIRECTION ( 'NONE',  ( 0.0000000000000000000, 1.000000000000000000, 0.0000000000000000000 ) ) ;
#59 = AXIS2_PLACEMENT_3D ( 'NONE', #153, #81, #155 ) ;
#60 = CARTESIAN_POINT ( 'NONE',  ( 1.047444401652940007E-13, 0.6499999999999962474, 30.00000000000000000 ) ) ;
#61 = ADVANCED_FACE ( 'NONE', ( #118, #10 ), #181, .T. ) ;
#62 = DIRECTION ( 'NONE',  ( 0.0000000000000000000, 1.000000000000000000, 0.0000000000000000000 ) ) ;
#63 = DIRECTION ( 'NONE',  ( -3.491481338843133355E-15, 1.224646799147353207E-16, -1.000000000000000000 ) ) ;
#64 = AXIS2_PLACEMENT_3D ( 'NONE', #171, #133, #85 ) ;
#65 = PLANE ( 'NONE',  #4 ) ;
#66 = APPROVAL ( #20, 'UNSPECIFIED' ) ;
#67 = CARTESIAN_POINT ( 'NONE',  ( 0.0000000000000000000, 0.0000000000000000000, 0.0000000000000000000 ) ) ;
#68 = AXIS2_PLACEMENT_3D ( 'NONE', #202, #25, #134 ) ;
#69 = APPLICATION_CONTEXT ( 'configuration controlled 3d designs of mechanical parts and assemblies' ) ;
#70 = SHAPE_DEFINITION_REPRESENTATION ( #90, #106 ) ;
#71 = CONICAL_SURFACE ( 'NONE', #87, 0.6500000000000000222, 0.7853981633974516097 ) ;
#72 = PERSON_AND_ORGANIZATION ( #136, #152 ) ;
#73 = MANIFOLD_SOLID_BREP ( 'Corps-Déplacer/Copier1[2]', #38 ) ;
#74 = MANIFOLD_SOLID_BREP ( 'Corps-Déplacer/Copier1[1]', #83 ) ;
#75 = FACE_OUTER_BOUND ( 'NONE', #132, .T. ) ;
#76 = APPROVAL_DATE_TIME ( #193, #208 ) ;
#77 = CC_DESIGN_DATE_AND_TIME_ASSIGNMENT ( #3, #144, ( #21 ) ) ;
#78 = DATE_AND_TIME ( #146, #200 ) ;
#79 = CC_DESIGN_APPROVAL ( #214, ( #55 ) ) ;
#80 = ORIENTED_EDGE ( 'NONE', *, *, #172, .T. ) ;
#81 = DIRECTION ( 'NONE',  ( 3.491481338843133355E-15, -1.224646799147353207E-16, 1.000000000000000000 ) ) ;
#82 = DIRECTION ( 'NONE',  ( 4.275831445896959482E-31, 1.000000000000000000, 1.224646799147353207E-16 ) ) ;
#83 = CLOSED_SHELL ( 'NONE', ( #165, #61, #223, #195, #1 ) ) ;
#84 = CARTESIAN_POINT ( 'NONE',  ( 3.142333204958820020E-14, -1.102182119232617714E-15, 9.000000000000000000 ) ) ;
#85 = DIRECTION ( 'NONE',  ( 3.930469274259673845E-31, 1.000000000000000000, 1.106328747434190686E-16 ) ) ;
#86 = DIRECTION ( 'NONE',  ( -3.491481338843133355E-15, 1.224646799147353207E-16, -1.000000000000000000 ) ) ;
#87 = AXIS2_PLACEMENT_3D ( 'NONE', #121, #188, #117 ) ;
#88 = CC_DESIGN_PERSON_AND_ORGANIZATION_ASSIGNMENT ( #2, #213, ( #120 ) ) ;
#89 = CONICAL_SURFACE ( 'NONE', #59, 0.4899999999999988809, 1.047197551196592746 ) ;
#90 = PRODUCT_DEFINITION_SHAPE ( 'NONE', 'NONE',  #21 ) ;
#91 = APPROVAL_DATE_TIME ( #17, #214 ) ;
#92 = APPROVAL_DATE_TIME ( #78, #66 ) ;
#93 = EDGE_LOOP ( 'NONE', ( #116 ) ) ;
#94 = APPROVAL_ROLE ( '' ) ;
#95 = AXIS2_PLACEMENT_3D ( 'NONE', #99, #101, #82 ) ;
#96 = EDGE_LOOP ( 'NONE', ( #41 ) ) ;
#97 = APPLICATION_CONTEXT ( 'configuration controlled 3d designs of mechanical parts and assemblies' ) ;
#98 = CARTESIAN_POINT ( 'NONE',  ( 1.043952920314096810E-13, -3.661693929450586610E-15, 29.89999999999999858 ) ) ;
#99 = CARTESIAN_POINT ( 'NONE',  ( 0.0000000000000000000, 0.0000000000000000000, 0.0000000000000000000 ) ) ;
#100 = AXIS2_PLACEMENT_3D ( 'NONE', #98, #167, #62 ) ;
#101 = DIRECTION ( 'NONE',  ( -3.491481338843133355E-15, 1.224646799147353207E-16, -1.000000000000000000 ) ) ;
#102 = DIRECTION ( 'NONE',  ( -4.275831445896958607E-31, -1.000000000000000000, -1.224646799147353207E-16 ) ) ;
#103 = CARTESIAN_POINT ( 'NONE',  ( 1.047444401652940007E-13, -3.673940397442059178E-15, 30.00000000000000000 ) ) ;
#104 = AXIS2_PLACEMENT_3D ( 'NONE', #103, #86, #24 ) ;
#105 = CARTESIAN_POINT ( 'NONE',  ( 3.142333204958820020E-14, 0.4899999999999991029, 9.000000000000000000 ) ) ;
#106 = ADVANCED_BREP_SHAPE_REPRESENTATION ( '957831', ( #74, #73, #123 ), #6 ) ;
#107 = VERTEX_POINT ( 'NONE', #16 ) ;
#108 = COORDINATED_UNIVERSAL_TIME_OFFSET ( 1, 0, .AHEAD. ) ;
#109 = ADVANCED_FACE ( 'NONE', ( #199 ), #89, .T. ) ;
#110 = ORIENTED_EDGE ( 'NONE', *, *, #53, .F. ) ;
#111 = PERSON_AND_ORGANIZATION_ROLE ( 'creator' ) ;
#112 = AXIS2_PLACEMENT_3D ( 'NONE', #135, #47, #184 ) ;
#113 = PERSON_AND_ORGANIZATION ( #136, #152 ) ;
#114 = ORIENTED_EDGE ( 'NONE', *, *, #11, .T. ) ;
#115 = EDGE_LOOP ( 'NONE', ( #80 ) ) ;
#116 = ORIENTED_EDGE ( 'NONE', *, *, #53, .T. ) ;
#117 = DIRECTION ( 'NONE',  ( 0.0000000000000000000, 1.000000000000000000, 0.0000000000000000000 ) ) ;
#118 = FACE_BOUND ( 'NONE', #39, .T. ) ;
#119 = EDGE_CURVE ( 'NONE', #32, #32, #156, .T. ) ;
#120 = PRODUCT_DEFINITION_FORMATION_WITH_SPECIFIED_SOURCE ( 'ANY', '', #131, .NOT_KNOWN. ) ;
#121 = CARTESIAN_POINT ( 'NONE',  ( 1.047444401652940007E-13, -3.673940397442059178E-15, 30.00000000000000000 ) ) ;
#122 = PLANE ( 'NONE',  #42 ) ;
#123 = AXIS2_PLACEMENT_3D ( 'NONE', #67, #139, #48 ) ;
#124 = CC_DESIGN_DATE_AND_TIME_ASSIGNMENT ( #212, #54, ( #55 ) ) ;
#125 = APPROVAL_STATUS ( 'not_yet_approved' ) ;
#126 = PERSON_AND_ORGANIZATION ( #136, #152 ) ;
#127 = ORIENTED_EDGE ( 'NONE', *, *, #119, .F. ) ;
#128 = CC_DESIGN_PERSON_AND_ORGANIZATION_ASSIGNMENT ( #72, #111, ( #21 ) ) ;
#129 = CC_DESIGN_APPROVAL ( #66, ( #21 ) ) ;
#130 = SECURITY_CLASSIFICATION_LEVEL ( 'unclassified' ) ;
#131 = PRODUCT ( '957831', '957831', '', ( #158 ) ) ;
#132 = EDGE_LOOP ( 'NONE', ( #180 ) ) ;
#133 = DIRECTION ( 'NONE',  ( -3.491481338843133355E-15, 1.224646799147353207E-16, -1.000000000000000000 ) ) ;
#134 = DIRECTION ( 'NONE',  ( 0.0000000000000000000, -1.000000000000000000, 0.0000000000000000000 ) ) ;
#135 = CARTESIAN_POINT ( 'NONE',  ( 0.0000000000000000000, 0.0000000000000000000, 0.0000000000000000000 ) ) ;
#136 = PERSON ( 'UNSPECIFIED', 'UNSPECIFIED', 'UNSPECIFIED', ('UNSPECIFIED'), ('UNSPECIFIED'), ('UNSPECIFIED') ) ;
#137 = DIRECTION ( 'NONE',  ( -4.275831445896958607E-31, -1.000000000000000000, -1.224646799147353207E-16 ) ) ;
#138 = LOCAL_TIME ( 10, 12, 28.00000000000000000, #215 ) ;
#139 = DIRECTION ( 'NONE',  ( 0.0000000000000000000, 0.0000000000000000000, 1.000000000000000000 ) ) ;
#140 = CIRCLE ( 'NONE', #104, 0.6500000000000000222 ) ;
#141 = ADVANCED_FACE ( 'NONE', ( #220, #218 ), #12, .T. ) ;
#142 = PERSON_AND_ORGANIZATION_ROLE ( 'design_supplier' ) ;
#143 = AXIS2_PLACEMENT_3D ( 'NONE', #84, #150, #58 ) ;
#144 = DATE_TIME_ROLE ( 'creation_date' ) ;
#145 = PLANE ( 'NONE',  #19 ) ;
#146 = CALENDAR_DATE ( 2021, 8, 10 ) ;
#147 = CC_DESIGN_PERSON_AND_ORGANIZATION_ASSIGNMENT ( #149, #52, ( #131 ) ) ;
#148 = APPROVAL_PERSON_ORGANIZATION ( #163, #208, #37 ) ;
#149 = PERSON_AND_ORGANIZATION ( #136, #152 ) ;
#150 = DIRECTION ( 'NONE',  ( -3.491481338843133355E-15, 1.224646799147353207E-16, -1.000000000000000000 ) ) ;
#151 = VERTEX_POINT ( 'NONE', #60 ) ;
#152 = ORGANIZATION ( 'UNSPECIFIED', 'UNSPECIFIED', '' ) ;
#153 = CARTESIAN_POINT ( 'NONE',  ( 9.877457685173115718E-16, -3.464545779834727238E-17, 0.2829016319029192261 ) ) ;
#154 = CARTESIAN_POINT ( 'NONE',  ( 3.299566204845248351E-14, -1.157332031646313308E-15, 9.450333209967908488 ) ) ;
#155 = DIRECTION ( 'NONE',  ( -3.930469274259673845E-31, -1.000000000000000000, -1.106328747434190686E-16 ) ) ;
#156 = CIRCLE ( 'NONE', #143, 0.4900000000000002132 ) ;
#157 = CARTESIAN_POINT ( 'NONE',  ( 9.877457685173117690E-16, 0.4899999999999988809, 0.2829016319029192816 ) ) ;
#158 = MECHANICAL_CONTEXT ( 'NONE', #97, 'mechanical' ) ;
#159 = CC_DESIGN_APPROVAL ( #208, ( #120 ) ) ;
#160 = CARTESIAN_POINT ( 'NONE',  ( 3.142333204958820020E-14, 0.4899999999999991029, 9.000000000000000000 ) ) ;
#161 = COORDINATED_UNIVERSAL_TIME_OFFSET ( 1, 0, .AHEAD. ) ;
#162 = ORIENTED_EDGE ( 'NONE', *, *, #172, .F. ) ;
#163 = PERSON_AND_ORGANIZATION ( #136, #152 ) ;
#164 = CALENDAR_DATE ( 2021, 8, 10 ) ;
#165 = ADVANCED_FACE ( 'NONE', ( #216 ), #65, .F. ) ;
#166 = EDGE_LOOP ( 'NONE', ( #114 ) ) ;
#167 = DIRECTION ( 'NONE',  ( -3.491481338843133355E-15, 1.224646799147353207E-16, -1.000000000000000000 ) ) ;
#168 = CARTESIAN_POINT ( 'NONE',  ( 1.043952920314096810E-13, 0.7499999999999963363, 29.89999999999999858 ) ) ;
#169 = CIRCLE ( 'NONE', #192, 0.4900000000000002132 ) ;
#170 = DIRECTION ( 'NONE',  ( 4.275831445896958607E-31, 1.000000000000000000, 1.224646799147353207E-16 ) ) ;
#171 = CARTESIAN_POINT ( 'NONE',  ( 9.877457685173115718E-16, -3.464545779834727238E-17, 0.2829016319029192261 ) ) ;
#172 = EDGE_CURVE ( 'NONE', #107, #107, #31, .T. ) ;
#173 = APPLICATION_PROTOCOL_DEFINITION ( 'international standard', 'config_control_design', 1994, #97 ) ;
#174 = LOCAL_TIME ( 10, 12, 28.00000000000000000, #108 ) ;
#175 = CALENDAR_DATE ( 2021, 8, 10 ) ;
#176 = CALENDAR_DATE ( 2021, 8, 10 ) ;
#177 = ORIENTED_EDGE ( 'NONE', *, *, #201, .F. ) ;
#178 = APPLICATION_PROTOCOL_DEFINITION ( 'international standard', 'config_control_design', 1994, #69 ) ;
#179 = ORIENTED_EDGE ( 'NONE', *, *, #119, .T. ) ;
#180 = ORIENTED_EDGE ( 'NONE', *, *, #11, .F. ) ;
#181 = CONICAL_SURFACE ( 'NONE', #68, 0.7499999999999975575, 0.5235987755982924874 ) ;
#182 = CYLINDRICAL_SURFACE ( 'NONE', #95, 0.7499999999999986677 ) ;
#183 = VERTEX_POINT ( 'NONE', #168 ) ;
#184 = DIRECTION ( 'NONE',  ( 4.275831445896958607E-31, 1.000000000000000000, 1.224646799147353207E-16 ) ) ;
#185 = APPROVAL_PERSON_ORGANIZATION ( #126, #214, #94 ) ;
#186 = CARTESIAN_POINT ( 'NONE',  ( 3.142333204958820020E-14, -1.102182119232617714E-15, 9.000000000000000000 ) ) ;
#187 = ADVANCED_FACE ( 'NONE', ( #203 ), #122, .T. ) ;
#188 = DIRECTION ( 'NONE',  ( -3.491481338843133355E-15, 1.224646799147353207E-16, -1.000000000000000000 ) ) ;
#189 = VERTEX_POINT ( 'NONE', #157 ) ;
#190 = DESIGN_CONTEXT ( 'detailed design', #69, 'design' ) ;
#191 =( NAMED_UNIT ( * ) SI_UNIT ( $, .STERADIAN. ) SOLID_ANGLE_UNIT ( ) );
#192 = AXIS2_PLACEMENT_3D ( 'NONE', #186, #204, #29 ) ;
#193 = DATE_AND_TIME ( #210, #138 ) ;
#194 = ORIENTED_EDGE ( 'NONE', *, *, #201, .T. ) ;
#195 = ADVANCED_FACE ( 'NONE', ( #44, #13 ), #71, .T. ) ;
#196 = APPROVAL_STATUS ( 'not_yet_approved' ) ;
#197 = EDGE_LOOP ( 'NONE', ( #162 ) ) ;
#198 = COORDINATED_UNIVERSAL_TIME_OFFSET ( 1, 0, .AHEAD. ) ;
#199 = FACE_OUTER_BOUND ( 'NONE', #93, .T. ) ;
#200 = LOCAL_TIME ( 10, 12, 28.00000000000000000, #161 ) ;
#201 = EDGE_CURVE ( 'NONE', #30, #30, #169, .T. ) ;
#202 = CARTESIAN_POINT ( 'NONE',  ( 3.299566204845248351E-14, -1.157332031646313308E-15, 9.450333209967908488 ) ) ;
#203 = FACE_OUTER_BOUND ( 'NONE', #7, .T. ) ;
#204 = DIRECTION ( 'NONE',  ( -3.491481338843133355E-15, 1.224646799147353207E-16, -1.000000000000000000 ) ) ;
#205 = CIRCLE ( 'NONE', #100, 0.7500000000000000000 ) ;
#206 = DIRECTION ( 'NONE',  ( -3.491481338843133355E-15, 1.224646799147353207E-16, -1.000000000000000000 ) ) ;
#207 = AXIS2_PLACEMENT_3D ( 'NONE', #154, #206, #43 ) ;
#208 = APPROVAL ( #125, 'UNSPECIFIED' ) ;
#209 = EDGE_LOOP ( 'NONE', ( #179 ) ) ;
#210 = CALENDAR_DATE ( 2021, 8, 10 ) ;
#211 = CARTESIAN_POINT ( 'NONE',  ( 1.047444401652940007E-13, 4.874219293650981803E-33, 30.00000000000000000 ) ) ;
#212 = DATE_AND_TIME ( #164, #46 ) ;
#213 = PERSON_AND_ORGANIZATION_ROLE ( 'creator' ) ;
#214 = APPROVAL ( #196, 'UNSPECIFIED' ) ;
#215 = COORDINATED_UNIVERSAL_TIME_OFFSET ( 1, 0, .AHEAD. ) ;
#216 = FACE_OUTER_BOUND ( 'NONE', #209, .T. ) ;
#217 = DIRECTION ( 'NONE',  ( 3.491481338843133355E-15, -1.224646799147353207E-16, 1.000000000000000000 ) ) ;
#218 = FACE_OUTER_BOUND ( 'NONE', #5, .T. ) ;
#219 = DIRECTION ( 'NONE',  ( 3.491481338843133355E-15, -1.224646799147353207E-16, 1.000000000000000000 ) ) ;
#220 = FACE_OUTER_BOUND ( 'NONE', #23, .T. ) ;
#221 = CIRCLE ( 'NONE', #64, 0.4899999999999988809 ) ;
#222 =( LENGTH_UNIT ( ) NAMED_UNIT ( * ) SI_UNIT ( .MILLI., .METRE. ) );
#223 = ADVANCED_FACE ( 'NONE', ( #45, #28 ), #182, .T. ) ;
ENDSEC;
END-ISO-10303-21;
