ISO-10303-21;
HEADER;
FILE_DESCRIPTION (( 'STEP AP203' ),
    '1' );
FILE_NAME ('957829.step',
    '2021-10-08T08:12:25',
    ( '' ),
    ( '' ),
    'SwSTEP 2.0',
    'SolidWorks 2019',
    '' );
FILE_SCHEMA (( 'CONFIG_CONTROL_DESIGN' ));
ENDSEC;

DATA;
#1 = CC_DESIGN_APPROVAL ( #114, ( #103 ) ) ;
#2 = CYLINDRICAL_SURFACE ( 'NONE', #64, 0.7499999999999986677 ) ;
#3 = DIRECTION ( 'NONE',  ( 3.491481338843133355E-15, -1.224646799147353207E-16, 1.000000000000000000 ) ) ;
#4 = EDGE_CURVE ( 'NONE', #66, #66, #24, .T. ) ;
#5 = DIRECTION ( 'NONE',  ( -3.491481338843133355E-15, 1.224646799147353207E-16, -1.000000000000000000 ) ) ;
#6 = CLOSED_SHELL ( 'NONE', ( #118, #145, #138 ) ) ;
#7 = SECURITY_CLASSIFICATION ( '', '', #140 ) ;
#8 = FACE_OUTER_BOUND ( 'NONE', #146, .T. ) ;
#9 = ADVANCED_FACE ( 'NONE', ( #47, #111 ), #173, .T. ) ;
#10 = FACE_OUTER_BOUND ( 'NONE', #92, .T. ) ;
#11 = CALENDAR_DATE ( 2021, 8, 10 ) ;
#12 = DATE_AND_TIME ( #11, #56 ) ;
#13 = PERSON_AND_ORGANIZATION ( #27, #105 ) ;
#14 = APPROVAL_STATUS ( 'not_yet_approved' ) ;
#15 = APPLICATION_PROTOCOL_DEFINITION ( 'international standard', 'config_control_design', 1994, #219 ) ;
#16 = AXIS2_PLACEMENT_3D ( 'NONE', #95, #68, #97 ) ;
#17 = DATE_AND_TIME ( #79, #178 ) ;
#18 = ORIENTED_EDGE ( 'NONE', *, *, #94, .T. ) ;
#19 = EDGE_LOOP ( 'NONE', ( #123 ) ) ;
#20 = LOCAL_TIME ( 10, 12, 25.00000000000000000, #186 ) ;
#21 = ADVANCED_FACE ( 'NONE', ( #67 ), #23, .F. ) ;
#22 = ORIENTED_EDGE ( 'NONE', *, *, #4, .F. ) ;
#23 = PLANE ( 'NONE',  #51 ) ;
#24 = CIRCLE ( 'NONE', #16, 0.4850000000000008193 ) ;
#25 = CC_DESIGN_APPROVAL ( #63, ( #121 ) ) ;
#26 = VERTEX_POINT ( 'NONE', #101 ) ;
#27 = PERSON ( 'UNSPECIFIED', 'UNSPECIFIED', 'UNSPECIFIED', ('UNSPECIFIED'), ('UNSPECIFIED'), ('UNSPECIFIED') ) ;
#28 = DIRECTION ( 'NONE',  ( -3.491481338843133355E-15, 1.224646799147353207E-16, -1.000000000000000000 ) ) ;
#29 = CC_DESIGN_PERSON_AND_ORGANIZATION_ASSIGNMENT ( #13, #137, ( #7 ) ) ;
#30 = CARTESIAN_POINT ( 'NONE',  ( 9.776667300630534213E-16, -3.429193271877230078E-17, 0.2800148805569710464 ) ) ;
#31 = CYLINDRICAL_SURFACE ( 'NONE', #35, 0.4849999999999998757 ) ;
#32 = APPLICATION_PROTOCOL_DEFINITION ( 'international standard', 'config_control_design', 1994, #46 ) ;
#33 = VERTEX_POINT ( 'NONE', #190 ) ;
#34 =( NAMED_UNIT ( * ) SI_UNIT ( $, .STERADIAN. ) SOLID_ANGLE_UNIT ( ) );
#35 = AXIS2_PLACEMENT_3D ( 'NONE', #197, #99, #169 ) ;
#36 = CC_DESIGN_PERSON_AND_ORGANIZATION_ASSIGNMENT ( #100, #171, ( #103 ) ) ;
#37 = DATE_AND_TIME ( #120, #214 ) ;
#38 = CARTESIAN_POINT ( 'NONE',  ( 3.142333204958820020E-14, 0.4849999999999997646, 9.000000000000000000 ) ) ;
#39 = CC_DESIGN_DATE_AND_TIME_ASSIGNMENT ( #12, #88, ( #103 ) ) ;
#40 = CIRCLE ( 'NONE', #164, 0.7500000000000000000 ) ;
#41 = EDGE_LOOP ( 'NONE', ( #22 ) ) ;
#42 = AXIS2_PLACEMENT_3D ( 'NONE', #167, #86, #153 ) ;
#43 = SHAPE_DEFINITION_REPRESENTATION ( #52, #201 ) ;
#44 = ORIENTED_EDGE ( 'NONE', *, *, #130, .T. ) ;
#45 = DIRECTION ( 'NONE',  ( 0.0000000000000000000, 1.000000000000000000, 0.0000000000000000000 ) ) ;
#46 = APPLICATION_CONTEXT ( 'configuration controlled 3d designs of mechanical parts and assemblies' ) ;
#47 = FACE_BOUND ( 'NONE', #106, .T. ) ;
#48 = DIRECTION ( 'NONE',  ( -3.491481338843133355E-15, 1.224646799147353207E-16, -1.000000000000000000 ) ) ;
#49 = FACE_BOUND ( 'NONE', #19, .T. ) ;
#50 = DIRECTION ( 'NONE',  ( 0.0000000000000000000, 1.000000000000000000, 0.0000000000000000000 ) ) ;
#51 = AXIS2_PLACEMENT_3D ( 'NONE', #112, #28, #179 ) ;
#52 = PRODUCT_DEFINITION_SHAPE ( 'NONE', 'NONE',  #103 ) ;
#53 = MANIFOLD_SOLID_BREP ( 'Corps-Déplacer/Copier1[2]', #6 ) ;
#54 = PERSON_AND_ORGANIZATION_ROLE ( 'design_owner' ) ;
#55 = DIRECTION ( 'NONE',  ( 1.000000000000000000, 0.0000000000000000000, 0.0000000000000000000 ) ) ;
#56 = LOCAL_TIME ( 10, 12, 25.00000000000000000, #202 ) ;
#57 = CARTESIAN_POINT ( 'NONE',  ( 3.302589916381525856E-14, 0.7499999999999963363, 9.458993464005754248 ) ) ;
#58 = EDGE_CURVE ( 'NONE', #26, #26, #40, .T. ) ;
#59 = DESIGN_CONTEXT ( 'detailed design', #46, 'design' ) ;
#60 = ORIENTED_EDGE ( 'NONE', *, *, #223, .T. ) ;
#61 = APPROVAL_PERSON_ORGANIZATION ( #135, #114, #218 ) ;
#62 = PERSON_AND_ORGANIZATION ( #27, #105 ) ;
#63 = APPROVAL ( #14, 'UNSPECIFIED' ) ;
#64 = AXIS2_PLACEMENT_3D ( 'NONE', #181, #5, #149 ) ;
#65 = CARTESIAN_POINT ( 'NONE',  ( 1.047444401652940007E-13, -3.673940397442059178E-15, 30.00000000000000000 ) ) ;
#66 = VERTEX_POINT ( 'NONE', #195 ) ;
#67 = FACE_OUTER_BOUND ( 'NONE', #177, .T. ) ;
#68 = DIRECTION ( 'NONE',  ( -3.491481338843133355E-15, 1.224646799147353207E-16, -1.000000000000000000 ) ) ;
#69 = CARTESIAN_POINT ( 'NONE',  ( 3.302589916381525856E-14, -1.158392606885038155E-15, 9.458993464005754248 ) ) ;
#70 = AXIS2_PLACEMENT_3D ( 'NONE', #69, #115, #50 ) ;
#71 = COORDINATED_UNIVERSAL_TIME_OFFSET ( 1, 0, .AHEAD. ) ;
#72 = APPROVAL_ROLE ( '' ) ;
#73 = APPROVAL_STATUS ( 'not_yet_approved' ) ;
#74 = CC_DESIGN_SECURITY_CLASSIFICATION ( #7, ( #121 ) ) ;
#75 = PERSON_AND_ORGANIZATION_ROLE ( 'creator' ) ;
#76 = EDGE_LOOP ( 'NONE', ( #210 ) ) ;
#77 = CIRCLE ( 'NONE', #165, 0.4849999999999989320 ) ;
#78 = LOCAL_TIME ( 10, 12, 25.00000000000000000, #221 ) ;
#79 = CALENDAR_DATE ( 2021, 8, 10 ) ;
#80 = APPROVAL_ROLE ( '' ) ;
#81 = AXIS2_PLACEMENT_3D ( 'NONE', #89, #204, #55 ) ;
#82 = CARTESIAN_POINT ( 'NONE',  ( 3.302589916381525856E-14, -1.158392606885038155E-15, 9.458993464005754248 ) ) ;
#83 = DIRECTION ( 'NONE',  ( 0.0000000000000000000, 1.000000000000000000, 0.0000000000000000000 ) ) ;
#84 = DIRECTION ( 'NONE',  ( -3.970989576056165499E-31, -1.000000000000000000, -1.117734198438666927E-16 ) ) ;
#85 = CC_DESIGN_APPROVAL ( #191, ( #7 ) ) ;
#86 = DIRECTION ( 'NONE',  ( 3.491481338843133355E-15, -1.224646799147353207E-16, 1.000000000000000000 ) ) ;
#87 = FACE_OUTER_BOUND ( 'NONE', #41, .T. ) ;
#88 = DATE_TIME_ROLE ( 'creation_date' ) ;
#89 = CARTESIAN_POINT ( 'NONE',  ( 0.0000000000000000000, 0.0000000000000000000, 0.0000000000000000000 ) ) ;
#90 = UNCERTAINTY_MEASURE_WITH_UNIT (LENGTH_MEASURE( 1.000000000000000082E-05 ), #159, 'distance_accuracy_value', 'NONE');
#91 = PERSON_AND_ORGANIZATION ( #27, #105 ) ;
#92 = EDGE_LOOP ( 'NONE', ( #44 ) ) ;
#93 = APPROVAL_PERSON_ORGANIZATION ( #154, #63, #72 ) ;
#94 = EDGE_CURVE ( 'NONE', #122, #122, #155, .T. ) ;
#95 = CARTESIAN_POINT ( 'NONE',  ( 3.142333204958820020E-14, -1.102182119232617714E-15, 9.000000000000000000 ) ) ;
#96 = CARTESIAN_POINT ( 'NONE',  ( 9.776667300630534213E-16, -3.429193271877230078E-17, 0.2800148805569710464 ) ) ;
#97 = DIRECTION ( 'NONE',  ( 0.0000000000000000000, 1.000000000000000000, 0.0000000000000000000 ) ) ;
#98 = ADVANCED_FACE ( 'NONE', ( #168, #49 ), #206, .T. ) ;
#99 = DIRECTION ( 'NONE',  ( -3.491481338843133355E-15, 1.224646799147353207E-16, -1.000000000000000000 ) ) ;
#100 = PERSON_AND_ORGANIZATION ( #27, #105 ) ;
#101 = CARTESIAN_POINT ( 'NONE',  ( 1.043952920314096810E-13, 0.7499999999999963363, 29.89999999999999858 ) ) ;
#102 = PERSON_AND_ORGANIZATION ( #27, #105 ) ;
#103 = PRODUCT_DEFINITION ( 'UNKNOWN', '', #121, #59 ) ;
#104 = VERTEX_POINT ( 'NONE', #38 ) ;
#105 = ORGANIZATION ( 'UNSPECIFIED', 'UNSPECIFIED', '' ) ;
#106 = EDGE_LOOP ( 'NONE', ( #207 ) ) ;
#107 = CC_DESIGN_PERSON_AND_ORGANIZATION_ASSIGNMENT ( #220, #54, ( #183 ) ) ;
#108 = EDGE_LOOP ( 'NONE', ( #142 ) ) ;
#109 = ORIENTED_EDGE ( 'NONE', *, *, #158, .F. ) ;
#110 = CC_DESIGN_PERSON_AND_ORGANIZATION_ASSIGNMENT ( #102, #172, ( #121 ) ) ;
#111 = FACE_OUTER_BOUND ( 'NONE', #176, .T. ) ;
#112 = CARTESIAN_POINT ( 'NONE',  ( 1.047444401652940007E-13, 4.874219293650981803E-33, 30.00000000000000000 ) ) ;
#113 = AXIS2_PLACEMENT_3D ( 'NONE', #182, #170, #213 ) ;
#114 = APPROVAL ( #73, 'UNSPECIFIED' ) ;
#115 = DIRECTION ( 'NONE',  ( -3.491481338843133355E-15, 1.224646799147353207E-16, -1.000000000000000000 ) ) ;
#116 = DIRECTION ( 'NONE',  ( 0.0000000000000000000, -1.000000000000000000, 0.0000000000000000000 ) ) ;
#117 = CLOSED_SHELL ( 'NONE', ( #150, #9, #141, #98, #21 ) ) ;
#118 = ADVANCED_FACE ( 'NONE', ( #10 ), #196, .T. ) ;
#119 = DATE_AND_TIME ( #139, #78 ) ;
#120 = CALENDAR_DATE ( 2021, 8, 10 ) ;
#121 = PRODUCT_DEFINITION_FORMATION_WITH_SPECIFIED_SOURCE ( 'ANY', '', #183, .NOT_KNOWN. ) ;
#122 = VERTEX_POINT ( 'NONE', #57 ) ;
#123 = ORIENTED_EDGE ( 'NONE', *, *, #158, .T. ) ;
#124 = APPROVAL_PERSON_ORGANIZATION ( #62, #191, #80 ) ;
#125 = DATE_TIME_ROLE ( 'classification_date' ) ;
#126 = EDGE_LOOP ( 'NONE', ( #222 ) ) ;
#127 = MANIFOLD_SOLID_BREP ( 'Corps-Déplacer/Copier1[1]', #117 ) ;
#128 = FACE_OUTER_BOUND ( 'NONE', #126, .T. ) ;
#129 = DIRECTION ( 'NONE',  ( 0.0000000000000000000, 1.000000000000000000, 0.0000000000000000000 ) ) ;
#130 = EDGE_CURVE ( 'NONE', #157, #157, #77, .T. ) ;
#131 = DIRECTION ( 'NONE',  ( -3.491481338843133355E-15, 1.224646799147353207E-16, -1.000000000000000000 ) ) ;
#132 = CIRCLE ( 'NONE', #143, 0.4850000000000008193 ) ;
#133 = DIRECTION ( 'NONE',  ( -4.275831445896958607E-31, -1.000000000000000000, -1.224646799147353207E-16 ) ) ;
#134 = FACE_OUTER_BOUND ( 'NONE', #205, .T. ) ;
#135 = PERSON_AND_ORGANIZATION ( #27, #105 ) ;
#136 = AXIS2_PLACEMENT_3D ( 'NONE', #82, #152, #116 ) ;
#137 = PERSON_AND_ORGANIZATION_ROLE ( 'classification_officer' ) ;
#138 = ADVANCED_FACE ( 'NONE', ( #87 ), #184, .T. ) ;
#139 = CALENDAR_DATE ( 2021, 8, 10 ) ;
#140 = SECURITY_CLASSIFICATION_LEVEL ( 'unclassified' ) ;
#141 = ADVANCED_FACE ( 'NONE', ( #211, #128 ), #2, .T. ) ;
#142 = ORIENTED_EDGE ( 'NONE', *, *, #58, .F. ) ;
#143 = AXIS2_PLACEMENT_3D ( 'NONE', #185, #212, #45 ) ;
#144 = APPROVAL_STATUS ( 'not_yet_approved' ) ;
#145 = ADVANCED_FACE ( 'NONE', ( #134, #194 ), #31, .T. ) ;
#146 = EDGE_LOOP ( 'NONE', ( #60 ) ) ;
#147 = ORIENTED_EDGE ( 'NONE', *, *, #130, .F. ) ;
#148 = AXIS2_PLACEMENT_3D ( 'NONE', #65, #216, #129 ) ;
#149 = DIRECTION ( 'NONE',  ( 4.275831445896959482E-31, 1.000000000000000000, 1.224646799147353207E-16 ) ) ;
#150 = ADVANCED_FACE ( 'NONE', ( #8 ), #199, .F. ) ;
#151 = CARTESIAN_POINT ( 'NONE',  ( 1.043952920314096810E-13, -3.661693929450586610E-15, 29.89999999999999858 ) ) ;
#152 = DIRECTION ( 'NONE',  ( 3.491481338843133355E-15, -1.224646799147353207E-16, 1.000000000000000000 ) ) ;
#153 = DIRECTION ( 'NONE',  ( -4.275831445896958607E-31, -1.000000000000000000, -1.224646799147353207E-16 ) ) ;
#154 = PERSON_AND_ORGANIZATION ( #27, #105 ) ;
#155 = CIRCLE ( 'NONE', #70, 0.7499999999999975575 ) ;
#156 = CIRCLE ( 'NONE', #148, 0.6500000000000000222 ) ;
#157 = VERTEX_POINT ( 'NONE', #160 ) ;
#158 = EDGE_CURVE ( 'NONE', #33, #33, #156, .T. ) ;
#159 =( LENGTH_UNIT ( ) NAMED_UNIT ( * ) SI_UNIT ( .MILLI., .METRE. ) );
#160 = CARTESIAN_POINT ( 'NONE',  ( 9.776667300630536185E-16, 0.4849999999999988765, 0.2800148805569711019 ) ) ;
#161 = AXIS2_PLACEMENT_3D ( 'NONE', #30, #3, #84 ) ;
#162 = ORIENTED_EDGE ( 'NONE', *, *, #94, .F. ) ;
#163 = DATE_AND_TIME ( #209, #20 ) ;
#164 = AXIS2_PLACEMENT_3D ( 'NONE', #151, #48, #83 ) ;
#165 = AXIS2_PLACEMENT_3D ( 'NONE', #96, #131, #166 ) ;
#166 = DIRECTION ( 'NONE',  ( 3.970989576056165499E-31, 1.000000000000000000, 1.117734198438666927E-16 ) ) ;
#167 = CARTESIAN_POINT ( 'NONE',  ( 3.142333204958820020E-14, 3.636917472954994983E-33, 9.000000000000000000 ) ) ;
#168 = FACE_OUTER_BOUND ( 'NONE', #108, .T. ) ;
#169 = DIRECTION ( 'NONE',  ( 4.275831445896958607E-31, 1.000000000000000000, 1.224646799147353207E-16 ) ) ;
#170 = DIRECTION ( 'NONE',  ( -3.491481338843133355E-15, 1.224646799147353207E-16, -1.000000000000000000 ) ) ;
#171 = PERSON_AND_ORGANIZATION_ROLE ( 'creator' ) ;
#172 = PERSON_AND_ORGANIZATION_ROLE ( 'design_supplier' ) ;
#173 = CONICAL_SURFACE ( 'NONE', #136, 0.7499999999999975575, 0.5235987755982908221 ) ;
#174 =( GEOMETRIC_REPRESENTATION_CONTEXT ( 3 ) GLOBAL_UNCERTAINTY_ASSIGNED_CONTEXT ( ( #90 ) ) GLOBAL_UNIT_ASSIGNED_CONTEXT ( ( #159, #189, #34 ) ) REPRESENTATION_CONTEXT ( 'NONE', 'WORKASPACE' ) );
#175 = PRODUCT_RELATED_PRODUCT_CATEGORY ( 'detail', '', ( #183 ) ) ;
#176 = EDGE_LOOP ( 'NONE', ( #18 ) ) ;
#177 = EDGE_LOOP ( 'NONE', ( #109 ) ) ;
#178 = LOCAL_TIME ( 10, 12, 25.00000000000000000, #193 ) ;
#179 = DIRECTION ( 'NONE',  ( 4.275831445896958607E-31, 1.000000000000000000, 1.224646799147353207E-16 ) ) ;
#180 = AXIS2_PLACEMENT_3D ( 'NONE', #215, #198, #133 ) ;
#181 = CARTESIAN_POINT ( 'NONE',  ( 0.0000000000000000000, 0.0000000000000000000, 0.0000000000000000000 ) ) ;
#182 = CARTESIAN_POINT ( 'NONE',  ( 1.047444401652940007E-13, -3.673940397442059178E-15, 30.00000000000000000 ) ) ;
#183 = PRODUCT ( '957829', '957829', '', ( #217 ) ) ;
#184 = PLANE ( 'NONE',  #180 ) ;
#185 = CARTESIAN_POINT ( 'NONE',  ( 3.142333204958820020E-14, -1.102182119232617714E-15, 9.000000000000000000 ) ) ;
#186 = COORDINATED_UNIVERSAL_TIME_OFFSET ( 1, 0, .AHEAD. ) ;
#187 = APPROVAL_DATE_TIME ( #37, #63 ) ;
#188 = CC_DESIGN_DATE_AND_TIME_ASSIGNMENT ( #163, #125, ( #7 ) ) ;
#189 =( NAMED_UNIT ( * ) PLANE_ANGLE_UNIT ( ) SI_UNIT ( $, .RADIAN. ) );
#190 = CARTESIAN_POINT ( 'NONE',  ( 1.047444401652940007E-13, 0.6499999999999962474, 30.00000000000000000 ) ) ;
#191 = APPROVAL ( #144, 'UNSPECIFIED' ) ;
#192 = EDGE_LOOP ( 'NONE', ( #162 ) ) ;
#193 = COORDINATED_UNIVERSAL_TIME_OFFSET ( 1, 0, .AHEAD. ) ;
#194 = FACE_OUTER_BOUND ( 'NONE', #76, .T. ) ;
#195 = CARTESIAN_POINT ( 'NONE',  ( 3.142333204958820020E-14, 0.4849999999999997646, 9.000000000000000000 ) ) ;
#196 = CONICAL_SURFACE ( 'NONE', #161, 0.4849999999999989320, 1.047197551196592746 ) ;
#197 = CARTESIAN_POINT ( 'NONE',  ( 0.0000000000000000000, 0.0000000000000000000, 0.0000000000000000000 ) ) ;
#198 = DIRECTION ( 'NONE',  ( 3.491481338843133355E-15, -1.224646799147353207E-16, 1.000000000000000000 ) ) ;
#199 = PLANE ( 'NONE',  #42 ) ;
#200 = APPROVAL_DATE_TIME ( #119, #114 ) ;
#201 = ADVANCED_BREP_SHAPE_REPRESENTATION ( '957829', ( #127, #53, #81 ), #174 ) ;
#202 = COORDINATED_UNIVERSAL_TIME_OFFSET ( 1, 0, .AHEAD. ) ;
#203 = CC_DESIGN_PERSON_AND_ORGANIZATION_ASSIGNMENT ( #91, #75, ( #121 ) ) ;
#204 = DIRECTION ( 'NONE',  ( 0.0000000000000000000, 0.0000000000000000000, 1.000000000000000000 ) ) ;
#205 = EDGE_LOOP ( 'NONE', ( #147 ) ) ;
#206 = CONICAL_SURFACE ( 'NONE', #113, 0.6500000000000000222, 0.7853981633974516097 ) ;
#207 = ORIENTED_EDGE ( 'NONE', *, *, #223, .F. ) ;
#208 = APPROVAL_DATE_TIME ( #17, #191 ) ;
#209 = CALENDAR_DATE ( 2021, 8, 10 ) ;
#210 = ORIENTED_EDGE ( 'NONE', *, *, #4, .T. ) ;
#211 = FACE_OUTER_BOUND ( 'NONE', #192, .T. ) ;
#212 = DIRECTION ( 'NONE',  ( -3.491481338843133355E-15, 1.224646799147353207E-16, -1.000000000000000000 ) ) ;
#213 = DIRECTION ( 'NONE',  ( 0.0000000000000000000, 1.000000000000000000, 0.0000000000000000000 ) ) ;
#214 = LOCAL_TIME ( 10, 12, 25.00000000000000000, #71 ) ;
#215 = CARTESIAN_POINT ( 'NONE',  ( 3.142333204958820020E-14, 3.636917472954994983E-33, 9.000000000000000000 ) ) ;
#216 = DIRECTION ( 'NONE',  ( -3.491481338843133355E-15, 1.224646799147353207E-16, -1.000000000000000000 ) ) ;
#217 = MECHANICAL_CONTEXT ( 'NONE', #219, 'mechanical' ) ;
#218 = APPROVAL_ROLE ( '' ) ;
#219 = APPLICATION_CONTEXT ( 'configuration controlled 3d designs of mechanical parts and assemblies' ) ;
#220 = PERSON_AND_ORGANIZATION ( #27, #105 ) ;
#221 = COORDINATED_UNIVERSAL_TIME_OFFSET ( 1, 0, .AHEAD. ) ;
#222 = ORIENTED_EDGE ( 'NONE', *, *, #58, .T. ) ;
#223 = EDGE_CURVE ( 'NONE', #104, #104, #132, .T. ) ;
ENDSEC;
END-ISO-10303-21;
