ISO-10303-21;
HEADER;
FILE_DESCRIPTION (( 'STEP AP203' ),
    '1' );
FILE_NAME ('957812.step',
    '2021-10-08T08:12:24',
    ( '' ),
    ( '' ),
    'SwSTEP 2.0',
    'SolidWorks 2019',
    '' );
FILE_SCHEMA (( 'CONFIG_CONTROL_DESIGN' ));
ENDSEC;

DATA;
#1 = VERTEX_POINT ( 'NONE', #66 ) ;
#2 = COORDINATED_UNIVERSAL_TIME_OFFSET ( 1, 0, .AHEAD. ) ;
#3 = CC_DESIGN_PERSON_AND_ORGANIZATION_ASSIGNMENT ( #52, #49, ( #58 ) ) ;
#4 = FACE_OUTER_BOUND ( 'NONE', #39, .T. ) ;
#5 = DIRECTION ( 'NONE',  ( 0.0000000000000000000, 1.000000000000000000, 0.0000000000000000000 ) ) ;
#6 = CONICAL_SURFACE ( 'NONE', #122, 0.4799999999999991496, 1.047197551196592746 ) ;
#7 = EDGE_CURVE ( 'NONE', #1, #1, #113, .T. ) ;
#8 = APPLICATION_PROTOCOL_DEFINITION ( 'international standard', 'config_control_design', 1994, #109 ) ;
#9 = DIRECTION ( 'NONE',  ( 0.0000000000000000000, -1.000000000000000000, 0.0000000000000000000 ) ) ;
#10 = PRODUCT ( '957812', '957812', '', ( #199 ) ) ;
#11 = DATE_AND_TIME ( #170, #121 ) ;
#12 = DIRECTION ( 'NONE',  ( 0.0000000000000000000, 1.000000000000000000, 0.0000000000000000000 ) ) ;
#13 = AXIS2_PLACEMENT_3D ( 'NONE', #57, #211, #55 ) ;
#14 = CC_DESIGN_DATE_AND_TIME_ASSIGNMENT ( #11, #157, ( #159 ) ) ;
#15 = APPROVAL ( #181, 'UNSPECIFIED' ) ;
#16 = CIRCLE ( 'NONE', #162, 0.7499999999999975575 ) ;
#17 = PERSON_AND_ORGANIZATION ( #191, #203 ) ;
#18 = VERTEX_POINT ( 'NONE', #98 ) ;
#19 = EDGE_LOOP ( 'NONE', ( #178 ) ) ;
#20 = PLANE ( 'NONE',  #89 ) ;
#21 = APPROVAL_ROLE ( '' ) ;
#22 = PERSON_AND_ORGANIZATION ( #191, #203 ) ;
#23 =( NAMED_UNIT ( * ) PLANE_ANGLE_UNIT ( ) SI_UNIT ( $, .RADIAN. ) );
#24 = EDGE_LOOP ( 'NONE', ( #138 ) ) ;
#25 = EDGE_LOOP ( 'NONE', ( #176 ) ) ;
#26 = EDGE_CURVE ( 'NONE', #163, #163, #16, .T. ) ;
#27 = APPROVAL_STATUS ( 'not_yet_approved' ) ;
#28 = ADVANCED_FACE ( 'NONE', ( #143 ), #6, .T. ) ;
#29 = CC_DESIGN_PERSON_AND_ORGANIZATION_ASSIGNMENT ( #35, #56, ( #58 ) ) ;
#30 = CC_DESIGN_APPROVAL ( #15, ( #193 ) ) ;
#31 = DATE_TIME_ROLE ( 'creation_date' ) ;
#32 = COORDINATED_UNIVERSAL_TIME_OFFSET ( 1, 0, .AHEAD. ) ;
#33 = AXIS2_PLACEMENT_3D ( 'NONE', #216, #220, #12 ) ;
#34 = ORIENTED_EDGE ( 'NONE', *, *, #7, .T. ) ;
#35 = PERSON_AND_ORGANIZATION ( #191, #203 ) ;
#36 = FACE_OUTER_BOUND ( 'NONE', #103, .T. ) ;
#37 = DIRECTION ( 'NONE',  ( -3.491481338843133355E-15, 1.224646799147353207E-16, -1.000000000000000000 ) ) ;
#38 = UNCERTAINTY_MEASURE_WITH_UNIT (LENGTH_MEASURE( 1.000000000000000082E-05 ), #169, 'distance_accuracy_value', 'NONE');
#39 = EDGE_LOOP ( 'NONE', ( #68 ) ) ;
#40 = DIRECTION ( 'NONE',  ( 3.491481338843133355E-15, -1.224646799147353207E-16, 1.000000000000000000 ) ) ;
#41 = AXIS2_PLACEMENT_3D ( 'NONE', #69, #100, #167 ) ;
#42 = EDGE_CURVE ( 'NONE', #18, #18, #94, .T. ) ;
#43 = APPROVAL_PERSON_ORGANIZATION ( #17, #15, #21 ) ;
#44 = ADVANCED_FACE ( 'NONE', ( #207, #73 ), #198, .T. ) ;
#45 = ORIENTED_EDGE ( 'NONE', *, *, #42, .T. ) ;
#46 = CALENDAR_DATE ( 2021, 8, 10 ) ;
#47 = PERSON_AND_ORGANIZATION_ROLE ( 'creator' ) ;
#48 = ORIENTED_EDGE ( 'NONE', *, *, #26, .T. ) ;
#49 = PERSON_AND_ORGANIZATION_ROLE ( 'creator' ) ;
#50 = DIRECTION ( 'NONE',  ( -3.491481338843133355E-15, 1.224646799147353207E-16, -1.000000000000000000 ) ) ;
#51 = CIRCLE ( 'NONE', #33, 0.4800000000000001488 ) ;
#52 = PERSON_AND_ORGANIZATION ( #191, #203 ) ;
#53 = DIRECTION ( 'NONE',  ( 0.0000000000000000000, 1.000000000000000000, 0.0000000000000000000 ) ) ;
#54 = PERSON_AND_ORGANIZATION ( #191, #203 ) ;
#55 = DIRECTION ( 'NONE',  ( 0.0000000000000000000, 1.000000000000000000, 0.0000000000000000000 ) ) ;
#56 = PERSON_AND_ORGANIZATION_ROLE ( 'design_supplier' ) ;
#57 = CARTESIAN_POINT ( 'NONE',  ( 1.047444401652940007E-13, -3.673940397442059178E-15, 30.00000000000000000 ) ) ;
#58 = PRODUCT_DEFINITION_FORMATION_WITH_SPECIFIED_SOURCE ( 'ANY', '', #10, .NOT_KNOWN. ) ;
#59 = CARTESIAN_POINT ( 'NONE',  ( 3.142333204958820020E-14, 3.599423478388443479E-33, 9.000000000000000000 ) ) ;
#60 = AXIS2_PLACEMENT_3D ( 'NONE', #215, #106, #139 ) ;
#61 = CARTESIAN_POINT ( 'NONE',  ( 9.675876916087956652E-16, -3.393840763919734767E-17, 0.2771281292110230332 ) ) ;
#62 = ADVANCED_BREP_SHAPE_REPRESENTATION ( '957812', ( #130, #129, #194 ), #148 ) ;
#63 = ORIENTED_EDGE ( 'NONE', *, *, #116, .T. ) ;
#64 = CC_DESIGN_PERSON_AND_ORGANIZATION_ASSIGNMENT ( #120, #74, ( #159 ) ) ;
#65 = LOCAL_TIME ( 10, 12, 24.00000000000000000, #2 ) ;
#66 = CARTESIAN_POINT ( 'NONE',  ( 3.142333204958820020E-14, 0.4799999999999990941, 9.000000000000000000 ) ) ;
#67 = CONICAL_SURFACE ( 'NONE', #189, 0.7499999999999975575, 0.5235987755982929315 ) ;
#68 = ORIENTED_EDGE ( 'NONE', *, *, #210, .F. ) ;
#69 = CARTESIAN_POINT ( 'NONE',  ( 3.142333204958820020E-14, 3.599423478388443479E-33, 9.000000000000000000 ) ) ;
#70 = DIRECTION ( 'NONE',  ( 0.0000000000000000000, 0.0000000000000000000, 1.000000000000000000 ) ) ;
#71 = DIRECTION ( 'NONE',  ( -3.491481338843133355E-15, 1.224646799147353207E-16, -1.000000000000000000 ) ) ;
#72 = PERSON_AND_ORGANIZATION ( #191, #203 ) ;
#73 = FACE_BOUND ( 'NONE', #188, .T. ) ;
#74 = PERSON_AND_ORGANIZATION_ROLE ( 'classification_officer' ) ;
#75 = SHAPE_DEFINITION_REPRESENTATION ( #146, #62 ) ;
#76 = CC_DESIGN_APPROVAL ( #110, ( #58 ) ) ;
#77 = AXIS2_PLACEMENT_3D ( 'NONE', #135, #166, #132 ) ;
#78 = ADVANCED_FACE ( 'NONE', ( #172, #118 ), #67, .T. ) ;
#79 = CALENDAR_DATE ( 2021, 8, 10 ) ;
#80 = CARTESIAN_POINT ( 'NONE',  ( 1.047444401652940007E-13, 0.6499999999999962474, 30.00000000000000000 ) ) ;
#81 = DIRECTION ( 'NONE',  ( 4.275831445896957731E-31, 1.000000000000000000, 1.224646799147352961E-16 ) ) ;
#82 = EDGE_LOOP ( 'NONE', ( #102 ) ) ;
#83 = ADVANCED_FACE ( 'NONE', ( #4, #185 ), #141, .T. ) ;
#84 = EDGE_LOOP ( 'NONE', ( #45 ) ) ;
#85 = VERTEX_POINT ( 'NONE', #134 ) ;
#86 = DIRECTION ( 'NONE',  ( 4.012354050806748659E-31, 1.000000000000000000, 1.129377263005735840E-16 ) ) ;
#87 = COORDINATED_UNIVERSAL_TIME_OFFSET ( 1, 0, .AHEAD. ) ;
#88 = ADVANCED_FACE ( 'NONE', ( #36 ), #152, .F. ) ;
#89 = AXIS2_PLACEMENT_3D ( 'NONE', #212, #105, #174 ) ;
#90 = CARTESIAN_POINT ( 'NONE',  ( 3.305613627917802729E-14, -1.159453182123763002E-15, 9.467653718043598232 ) ) ;
#91 = FACE_OUTER_BOUND ( 'NONE', #25, .T. ) ;
#92 = CC_DESIGN_DATE_AND_TIME_ASSIGNMENT ( #180, #31, ( #193 ) ) ;
#93 = EDGE_LOOP ( 'NONE', ( #223 ) ) ;
#94 = CIRCLE ( 'NONE', #60, 0.7500000000000000000 ) ;
#95 = ORIENTED_EDGE ( 'NONE', *, *, #26, .F. ) ;
#96 = APPROVAL_STATUS ( 'not_yet_approved' ) ;
#97 = CC_DESIGN_PERSON_AND_ORGANIZATION_ASSIGNMENT ( #54, #151, ( #10 ) ) ;
#98 = CARTESIAN_POINT ( 'NONE',  ( 1.043952920314096810E-13, 0.7499999999999963363, 29.89999999999999858 ) ) ;
#99 = EDGE_LOOP ( 'NONE', ( #95 ) ) ;
#100 = DIRECTION ( 'NONE',  ( 3.491481338843133355E-15, -1.224646799147353207E-16, 1.000000000000000000 ) ) ;
#101 = EDGE_CURVE ( 'NONE', #85, #85, #51, .T. ) ;
#102 = ORIENTED_EDGE ( 'NONE', *, *, #210, .T. ) ;
#103 = EDGE_LOOP ( 'NONE', ( #34 ) ) ;
#104 = AXIS2_PLACEMENT_3D ( 'NONE', #218, #177, #5 ) ;
#105 = DIRECTION ( 'NONE',  ( -3.491481338843133355E-15, 1.224646799147353207E-16, -1.000000000000000000 ) ) ;
#106 = DIRECTION ( 'NONE',  ( -3.491481338843133355E-15, 1.224646799147353207E-16, -1.000000000000000000 ) ) ;
#107 = CLOSED_SHELL ( 'NONE', ( #88, #78, #201, #44, #125 ) ) ;
#108 = DIRECTION ( 'NONE',  ( 1.000000000000000000, 0.0000000000000000000, 0.0000000000000000000 ) ) ;
#109 = APPLICATION_CONTEXT ( 'configuration controlled 3d designs of mechanical parts and assemblies' ) ;
#110 = APPROVAL ( #96, 'UNSPECIFIED' ) ;
#111 = APPROVAL_ROLE ( '' ) ;
#112 = APPROVAL_PERSON_ORGANIZATION ( #72, #110, #111 ) ;
#113 = CIRCLE ( 'NONE', #104, 0.4800000000000001488 ) ;
#114 = COORDINATED_UNIVERSAL_TIME_OFFSET ( 1, 0, .AHEAD. ) ;
#115 = DATE_AND_TIME ( #164, #147 ) ;
#116 = EDGE_CURVE ( 'NONE', #206, #206, #173, .T. ) ;
#117 = APPLICATION_PROTOCOL_DEFINITION ( 'international standard', 'config_control_design', 1994, #128 ) ;
#118 = FACE_OUTER_BOUND ( 'NONE', #171, .T. ) ;
#119 = COORDINATED_UNIVERSAL_TIME_OFFSET ( 1, 0, .AHEAD. ) ;
#120 = PERSON_AND_ORGANIZATION ( #191, #203 ) ;
#121 = LOCAL_TIME ( 10, 12, 24.00000000000000000, #119 ) ;
#122 = AXIS2_PLACEMENT_3D ( 'NONE', #61, #40, #144 ) ;
#123 = DIRECTION ( 'NONE',  ( 3.491481338843133355E-15, -1.224646799147353207E-16, 1.000000000000000000 ) ) ;
#124 = PERSON_AND_ORGANIZATION ( #191, #203 ) ;
#125 = ADVANCED_FACE ( 'NONE', ( #91 ), #20, .F. ) ;
#126 = PLANE ( 'NONE',  #222 ) ;
#127 = DIRECTION ( 'NONE',  ( 0.0000000000000000000, 1.000000000000000000, 0.0000000000000000000 ) ) ;
#128 = APPLICATION_CONTEXT ( 'configuration controlled 3d designs of mechanical parts and assemblies' ) ;
#129 = MANIFOLD_SOLID_BREP ( 'Corps-Déplacer/Copier1[2]', #221 ) ;
#130 = MANIFOLD_SOLID_BREP ( 'Corps-Déplacer/Copier1[1]', #107 ) ;
#131 = CC_DESIGN_PERSON_AND_ORGANIZATION_ASSIGNMENT ( #22, #47, ( #193 ) ) ;
#132 = DIRECTION ( 'NONE',  ( 4.275831445896959482E-31, 1.000000000000000000, 1.224646799147353207E-16 ) ) ;
#133 = EDGE_LOOP ( 'NONE', ( #183 ) ) ;
#134 = CARTESIAN_POINT ( 'NONE',  ( 3.142333204958820020E-14, 0.4799999999999990941, 9.000000000000000000 ) ) ;
#135 = CARTESIAN_POINT ( 'NONE',  ( 0.0000000000000000000, 0.0000000000000000000, 0.0000000000000000000 ) ) ;
#136 = APPROVAL_DATE_TIME ( #200, #15 ) ;
#137 = CARTESIAN_POINT ( 'NONE',  ( 0.0000000000000000000, 0.0000000000000000000, 0.0000000000000000000 ) ) ;
#138 = ORIENTED_EDGE ( 'NONE', *, *, #101, .T. ) ;
#139 = DIRECTION ( 'NONE',  ( 0.0000000000000000000, 1.000000000000000000, 0.0000000000000000000 ) ) ;
#140 = CARTESIAN_POINT ( 'NONE',  ( 3.305613627917802729E-14, -1.159453182123763002E-15, 9.467653718043598232 ) ) ;
#141 = CYLINDRICAL_SURFACE ( 'NONE', #217, 0.4799999999999996492 ) ;
#142 = ADVANCED_FACE ( 'NONE', ( #168 ), #126, .T. ) ;
#143 = FACE_OUTER_BOUND ( 'NONE', #82, .T. ) ;
#144 = DIRECTION ( 'NONE',  ( -4.012354050806748659E-31, -1.000000000000000000, -1.129377263005735840E-16 ) ) ;
#145 = CIRCLE ( 'NONE', #161, 0.4799999999999991496 ) ;
#146 = PRODUCT_DEFINITION_SHAPE ( 'NONE', 'NONE',  #193 ) ;
#147 = LOCAL_TIME ( 10, 12, 24.00000000000000000, #32 ) ;
#148 =( GEOMETRIC_REPRESENTATION_CONTEXT ( 3 ) GLOBAL_UNCERTAINTY_ASSIGNED_CONTEXT ( ( #38 ) ) GLOBAL_UNIT_ASSIGNED_CONTEXT ( ( #169, #23, #153 ) ) REPRESENTATION_CONTEXT ( 'NONE', 'WORKASPACE' ) );
#149 = CARTESIAN_POINT ( 'NONE',  ( 0.0000000000000000000, 0.0000000000000000000, 0.0000000000000000000 ) ) ;
#150 = LOCAL_TIME ( 10, 12, 24.00000000000000000, #114 ) ;
#151 = PERSON_AND_ORGANIZATION_ROLE ( 'design_owner' ) ;
#152 = PLANE ( 'NONE',  #41 ) ;
#153 =( NAMED_UNIT ( * ) SI_UNIT ( $, .STERADIAN. ) SOLID_ANGLE_UNIT ( ) );
#154 = DESIGN_CONTEXT ( 'detailed design', #128, 'design' ) ;
#155 = AXIS2_PLACEMENT_3D ( 'NONE', #175, #219, #127 ) ;
#156 = DIRECTION ( 'NONE',  ( 3.491481338843133355E-15, -1.224646799147353207E-16, 1.000000000000000000 ) ) ;
#157 = DATE_TIME_ROLE ( 'classification_date' ) ;
#158 = DATE_AND_TIME ( #208, #187 ) ;
#159 = SECURITY_CLASSIFICATION ( '', '', #190 ) ;
#160 = CC_DESIGN_APPROVAL ( #205, ( #159 ) ) ;
#161 = AXIS2_PLACEMENT_3D ( 'NONE', #209, #37, #86 ) ;
#162 = AXIS2_PLACEMENT_3D ( 'NONE', #140, #71, #53 ) ;
#163 = VERTEX_POINT ( 'NONE', #184 ) ;
#164 = CALENDAR_DATE ( 2021, 8, 10 ) ;
#165 = VERTEX_POINT ( 'NONE', #182 ) ;
#166 = DIRECTION ( 'NONE',  ( -3.491481338843133355E-15, 1.224646799147353207E-16, -1.000000000000000000 ) ) ;
#167 = DIRECTION ( 'NONE',  ( -4.275831445896958607E-31, -1.000000000000000000, -1.224646799147353207E-16 ) ) ;
#168 = FACE_OUTER_BOUND ( 'NONE', #133, .T. ) ;
#169 =( LENGTH_UNIT ( ) NAMED_UNIT ( * ) SI_UNIT ( .MILLI., .METRE. ) );
#170 = CALENDAR_DATE ( 2021, 8, 10 ) ;
#171 = EDGE_LOOP ( 'NONE', ( #48 ) ) ;
#172 = FACE_BOUND ( 'NONE', #19, .T. ) ;
#173 = CIRCLE ( 'NONE', #155, 0.6500000000000000222 ) ;
#174 = DIRECTION ( 'NONE',  ( 4.275831445896958607E-31, 1.000000000000000000, 1.224646799147353207E-16 ) ) ;
#175 = CARTESIAN_POINT ( 'NONE',  ( 1.047444401652940007E-13, -3.673940397442059178E-15, 30.00000000000000000 ) ) ;
#176 = ORIENTED_EDGE ( 'NONE', *, *, #116, .F. ) ;
#177 = DIRECTION ( 'NONE',  ( -3.491481338843133355E-15, 1.224646799147353207E-16, -1.000000000000000000 ) ) ;
#178 = ORIENTED_EDGE ( 'NONE', *, *, #7, .F. ) ;
#179 = CYLINDRICAL_SURFACE ( 'NONE', #77, 0.7499999999999986677 ) ;
#180 = DATE_AND_TIME ( #79, #150 ) ;
#181 = APPROVAL_STATUS ( 'not_yet_approved' ) ;
#182 = CARTESIAN_POINT ( 'NONE',  ( 9.675876916087958624E-16, 0.4799999999999990941, 0.2771281292110230887 ) ) ;
#183 = ORIENTED_EDGE ( 'NONE', *, *, #101, .F. ) ;
#184 = CARTESIAN_POINT ( 'NONE',  ( 3.305613627917802729E-14, 0.7499999999999963363, 9.467653718043598232 ) ) ;
#185 = FACE_OUTER_BOUND ( 'NONE', #24, .T. ) ;
#186 = APPROVAL_PERSON_ORGANIZATION ( #124, #205, #195 ) ;
#187 = LOCAL_TIME ( 10, 12, 24.00000000000000000, #87 ) ;
#188 = EDGE_LOOP ( 'NONE', ( #63 ) ) ;
#189 = AXIS2_PLACEMENT_3D ( 'NONE', #90, #156, #9 ) ;
#190 = SECURITY_CLASSIFICATION_LEVEL ( 'unclassified' ) ;
#191 = PERSON ( 'UNSPECIFIED', 'UNSPECIFIED', 'UNSPECIFIED', ('UNSPECIFIED'), ('UNSPECIFIED'), ('UNSPECIFIED') ) ;
#192 = FACE_OUTER_BOUND ( 'NONE', #99, .T. ) ;
#193 = PRODUCT_DEFINITION ( 'UNKNOWN', '', #58, #154 ) ;
#194 = AXIS2_PLACEMENT_3D ( 'NONE', #149, #70, #108 ) ;
#195 = APPROVAL_ROLE ( '' ) ;
#196 = CC_DESIGN_SECURITY_CLASSIFICATION ( #159, ( #58 ) ) ;
#197 = FACE_OUTER_BOUND ( 'NONE', #84, .T. ) ;
#198 = CONICAL_SURFACE ( 'NONE', #13, 0.6500000000000000222, 0.7853981633974516097 ) ;
#199 = MECHANICAL_CONTEXT ( 'NONE', #109, 'mechanical' ) ;
#200 = DATE_AND_TIME ( #46, #65 ) ;
#201 = ADVANCED_FACE ( 'NONE', ( #192, #197 ), #179, .T. ) ;
#202 = APPROVAL_DATE_TIME ( #115, #110 ) ;
#203 = ORGANIZATION ( 'UNSPECIFIED', 'UNSPECIFIED', '' ) ;
#204 = DIRECTION ( 'NONE',  ( -4.275831445896958607E-31, -1.000000000000000000, -1.224646799147353207E-16 ) ) ;
#205 = APPROVAL ( #27, 'UNSPECIFIED' ) ;
#206 = VERTEX_POINT ( 'NONE', #80 ) ;
#207 = FACE_OUTER_BOUND ( 'NONE', #93, .T. ) ;
#208 = CALENDAR_DATE ( 2021, 8, 10 ) ;
#209 = CARTESIAN_POINT ( 'NONE',  ( 9.675876916087956652E-16, -3.393840763919734767E-17, 0.2771281292110230332 ) ) ;
#210 = EDGE_CURVE ( 'NONE', #165, #165, #145, .T. ) ;
#211 = DIRECTION ( 'NONE',  ( -3.491481338843133355E-15, 1.224646799147353207E-16, -1.000000000000000000 ) ) ;
#212 = CARTESIAN_POINT ( 'NONE',  ( 1.047444401652940007E-13, 4.874219293650981803E-33, 30.00000000000000000 ) ) ;
#213 = APPROVAL_DATE_TIME ( #158, #205 ) ;
#214 = PRODUCT_RELATED_PRODUCT_CATEGORY ( 'detail', '', ( #10 ) ) ;
#215 = CARTESIAN_POINT ( 'NONE',  ( 1.043952920314096810E-13, -3.661693929450586610E-15, 29.89999999999999858 ) ) ;
#216 = CARTESIAN_POINT ( 'NONE',  ( 3.142333204958820020E-14, -1.102182119232617714E-15, 9.000000000000000000 ) ) ;
#217 = AXIS2_PLACEMENT_3D ( 'NONE', #137, #50, #81 ) ;
#218 = CARTESIAN_POINT ( 'NONE',  ( 3.142333204958820020E-14, -1.102182119232617714E-15, 9.000000000000000000 ) ) ;
#219 = DIRECTION ( 'NONE',  ( -3.491481338843133355E-15, 1.224646799147353207E-16, -1.000000000000000000 ) ) ;
#220 = DIRECTION ( 'NONE',  ( -3.491481338843133355E-15, 1.224646799147353207E-16, -1.000000000000000000 ) ) ;
#221 = CLOSED_SHELL ( 'NONE', ( #28, #83, #142 ) ) ;
#222 = AXIS2_PLACEMENT_3D ( 'NONE', #59, #123, #204 ) ;
#223 = ORIENTED_EDGE ( 'NONE', *, *, #42, .F. ) ;
ENDSEC;
END-ISO-10303-21;
