ISO-10303-21;
HEADER;
FILE_DESCRIPTION (( 'STEP AP203' ),
    '1' );
FILE_NAME ('957810.step',
    '2021-10-08T08:12:23',
    ( '' ),
    ( '' ),
    'SwSTEP 2.0',
    'SolidWorks 2019',
    '' );
FILE_SCHEMA (( 'CONFIG_CONTROL_DESIGN' ));
ENDSEC;

DATA;
#1 = DIRECTION ( 'NONE',  ( -4.275831445896958607E-31, -1.000000000000000000, -1.224646799147353207E-16 ) ) ;
#2 = CONICAL_SURFACE ( 'NONE', #42, 0.6500000000000000222, 0.7853981633974516097 ) ;
#3 = DIRECTION ( 'NONE',  ( 3.491481338843133355E-15, -1.224646799147353207E-16, 1.000000000000000000 ) ) ;
#4 = PERSON_AND_ORGANIZATION_ROLE ( 'design_supplier' ) ;
#5 = VERTEX_POINT ( 'NONE', #161 ) ;
#6 = PERSON_AND_ORGANIZATION_ROLE ( 'creator' ) ;
#7 = DIRECTION ( 'NONE',  ( -3.491481338843133355E-15, 1.224646799147353207E-16, -1.000000000000000000 ) ) ;
#8 = DIRECTION ( 'NONE',  ( 0.0000000000000000000, -1.000000000000000000, 0.0000000000000000000 ) ) ;
#9 = ORIENTED_EDGE ( 'NONE', *, *, #68, .F. ) ;
#10 = APPROVAL ( #105, 'UNSPECIFIED' ) ;
#11 = EDGE_LOOP ( 'NONE', ( #9 ) ) ;
#12 = AXIS2_PLACEMENT_3D ( 'NONE', #16, #152, #151 ) ;
#13 = DIRECTION ( 'NONE',  ( 4.097723285930295627E-31, 1.000000000000000000, 1.153406566473942739E-16 ) ) ;
#14 = DIRECTION ( 'NONE',  ( -3.491481338843133355E-15, 1.224646799147353207E-16, -1.000000000000000000 ) ) ;
#15 = CC_DESIGN_PERSON_AND_ORGANIZATION_ASSIGNMENT ( #188, #6, ( #205 ) ) ;
#16 = CARTESIAN_POINT ( 'NONE',  ( 2.478951750578624051E-14, 1.097456131022936872E-31, 7.099999999999998757 ) ) ;
#17 = PERSON_AND_ORGANIZATION_ROLE ( 'design_owner' ) ;
#18 = CALENDAR_DATE ( 2021, 8, 10 ) ;
#19 = APPROVAL_DATE_TIME ( #169, #10 ) ;
#20 = AXIS2_PLACEMENT_3D ( 'NONE', #63, #102, #21 ) ;
#21 = DIRECTION ( 'NONE',  ( 0.0000000000000000000, 1.000000000000000000, 0.0000000000000000000 ) ) ;
#22 = DIRECTION ( 'NONE',  ( 3.491481338843133355E-15, -1.224646799147353207E-16, 1.000000000000000000 ) ) ;
#23 =( NAMED_UNIT ( * ) PLANE_ANGLE_UNIT ( ) SI_UNIT ( $, .RADIAN. ) );
#24 = DATE_AND_TIME ( #181, #48 ) ;
#25 = AXIS2_PLACEMENT_3D ( 'NONE', #95, #14, #219 ) ;
#26 = CARTESIAN_POINT ( 'NONE',  ( 1.047444401652940007E-13, 4.874219293650981803E-33, 30.00000000000000000 ) ) ;
#27 = EDGE_LOOP ( 'NONE', ( #214 ) ) ;
#28 = EDGE_LOOP ( 'NONE', ( #45 ) ) ;
#29 = CARTESIAN_POINT ( 'NONE',  ( 0.0000000000000000000, 0.0000000000000000000, 0.0000000000000000000 ) ) ;
#30 = ORIENTED_EDGE ( 'NONE', *, *, #68, .T. ) ;
#31 = DIRECTION ( 'NONE',  ( 0.0000000000000000000, 1.000000000000000000, 0.0000000000000000000 ) ) ;
#32 = AXIS2_PLACEMENT_3D ( 'NONE', #100, #182, #31 ) ;
#33 = PLANE ( 'NONE',  #55 ) ;
#34 = MECHANICAL_CONTEXT ( 'NONE', #139, 'mechanical' ) ;
#35 = PLANE ( 'NONE',  #75 ) ;
#36 = CALENDAR_DATE ( 2021, 8, 10 ) ;
#37 = DIRECTION ( 'NONE',  ( 0.0000000000000000000, 1.000000000000000000, 0.0000000000000000000 ) ) ;
#38 = COORDINATED_UNIVERSAL_TIME_OFFSET ( 1, 0, .AHEAD. ) ;
#39 = CARTESIAN_POINT ( 'NONE',  ( 9.474296147002789697E-16, 0.4699999999999991407, 0.2713546265191267293 ) ) ;
#40 = DESIGN_CONTEXT ( 'detailed design', #126, 'design' ) ;
#41 = DIRECTION ( 'NONE',  ( -3.491481338843133355E-15, 1.224646799147353207E-16, -1.000000000000000000 ) ) ;
#42 = AXIS2_PLACEMENT_3D ( 'NONE', #158, #137, #109 ) ;
#43 = EDGE_CURVE ( 'NONE', #122, #122, #47, .T. ) ;
#44 = DATE_AND_TIME ( #197, #110 ) ;
#45 = ORIENTED_EDGE ( 'NONE', *, *, #54, .T. ) ;
#46 = ADVANCED_FACE ( 'NONE', ( #143 ), #213, .F. ) ;
#47 = CIRCLE ( 'NONE', #200, 0.4699999999999991962 ) ;
#48 = LOCAL_TIME ( 10, 12, 23.00000000000000000, #193 ) ;
#49 = FACE_OUTER_BOUND ( 'NONE', #162, .T. ) ;
#50 = PERSON_AND_ORGANIZATION_ROLE ( 'classification_officer' ) ;
#51 = DIRECTION ( 'NONE',  ( 0.0000000000000000000, 1.000000000000000000, 0.0000000000000000000 ) ) ;
#52 = SECURITY_CLASSIFICATION ( '', '', #133 ) ;
#53 = FACE_OUTER_BOUND ( 'NONE', #165, .T. ) ;
#54 = EDGE_CURVE ( 'NONE', #194, #194, #170, .T. ) ;
#55 = AXIS2_PLACEMENT_3D ( 'NONE', #97, #22, #1 ) ;
#56 = APPROVAL ( #71, 'UNSPECIFIED' ) ;
#57 = EDGE_LOOP ( 'NONE', ( #88 ) ) ;
#58 = ORIENTED_EDGE ( 'NONE', *, *, #115, .T. ) ;
#59 = MANIFOLD_SOLID_BREP ( 'Corps-Déplacer/Copier1[2]', #195 ) ;
#60 = LOCAL_TIME ( 10, 12, 23.00000000000000000, #118 ) ;
#61 = PERSON_AND_ORGANIZATION ( #223, #154 ) ;
#62 = CALENDAR_DATE ( 2021, 8, 10 ) ;
#63 = CARTESIAN_POINT ( 'NONE',  ( 2.648279596610162716E-14, -9.288914407632157571E-16, 7.584974226119286733 ) ) ;
#64 = FACE_OUTER_BOUND ( 'NONE', #217, .T. ) ;
#65 = CARTESIAN_POINT ( 'NONE',  ( 2.648279596610162716E-14, 0.7499999999999963363, 7.584974226119286733 ) ) ;
#66 = DIRECTION ( 'NONE',  ( -4.097723285930295627E-31, -1.000000000000000000, -1.153406566473942739E-16 ) ) ;
#67 = APPROVAL_DATE_TIME ( #24, #56 ) ;
#68 = EDGE_CURVE ( 'NONE', #106, #106, #128, .T. ) ;
#69 = ORIENTED_EDGE ( 'NONE', *, *, #117, .T. ) ;
#70 = LOCAL_TIME ( 10, 12, 23.00000000000000000, #81 ) ;
#71 = APPROVAL_STATUS ( 'not_yet_approved' ) ;
#72 = EDGE_LOOP ( 'NONE', ( #92 ) ) ;
#73 = ADVANCED_FACE ( 'NONE', ( #127 ), #33, .T. ) ;
#74 = CC_DESIGN_APPROVAL ( #76, ( #205 ) ) ;
#75 = AXIS2_PLACEMENT_3D ( 'NONE', #26, #159, #172 ) ;
#76 = APPROVAL ( #138, 'UNSPECIFIED' ) ;
#77 = DIRECTION ( 'NONE',  ( -3.491481338843133355E-15, 1.224646799147353207E-16, -1.000000000000000000 ) ) ;
#78 = DIRECTION ( 'NONE',  ( 4.275831445896957731E-31, 1.000000000000000000, 1.224646799147353207E-16 ) ) ;
#79 = CARTESIAN_POINT ( 'NONE',  ( 0.0000000000000000000, 0.0000000000000000000, 0.0000000000000000000 ) ) ;
#80 = PERSON_AND_ORGANIZATION ( #223, #154 ) ;
#81 = COORDINATED_UNIVERSAL_TIME_OFFSET ( 1, 0, .AHEAD. ) ;
#82 = PERSON_AND_ORGANIZATION_ROLE ( 'creator' ) ;
#83 = AXIS2_PLACEMENT_3D ( 'NONE', #141, #211, #8 ) ;
#84 = ADVANCED_FACE ( 'NONE', ( #153, #104 ), #208, .T. ) ;
#85 = COORDINATED_UNIVERSAL_TIME_OFFSET ( 1, 0, .AHEAD. ) ;
#86 = CARTESIAN_POINT ( 'NONE',  ( 1.047444401652940007E-13, 0.6499999999999962474, 30.00000000000000000 ) ) ;
#87 = CARTESIAN_POINT ( 'NONE',  ( 0.0000000000000000000, 0.0000000000000000000, 0.0000000000000000000 ) ) ;
#88 = ORIENTED_EDGE ( 'NONE', *, *, #54, .F. ) ;
#89 = ADVANCED_FACE ( 'NONE', ( #221, #187 ), #119, .T. ) ;
#90 = ORIENTED_EDGE ( 'NONE', *, *, #115, .F. ) ;
#91 = EDGE_LOOP ( 'NONE', ( #30 ) ) ;
#92 = ORIENTED_EDGE ( 'NONE', *, *, #199, .T. ) ;
#93 = DIRECTION ( 'NONE',  ( 0.0000000000000000000, 0.0000000000000000000, 1.000000000000000000 ) ) ;
#94 =( NAMED_UNIT ( * ) SI_UNIT ( $, .STERADIAN. ) SOLID_ANGLE_UNIT ( ) );
#95 = CARTESIAN_POINT ( 'NONE',  ( 1.047444401652940007E-13, -3.673940397442059178E-15, 30.00000000000000000 ) ) ;
#96 = AXIS2_PLACEMENT_3D ( 'NONE', #87, #7, #132 ) ;
#97 = CARTESIAN_POINT ( 'NONE',  ( 2.478951750578624051E-14, 1.097456131022936872E-31, 7.099999999999998757 ) ) ;
#98 = CC_DESIGN_APPROVAL ( #10, ( #164 ) ) ;
#99 = ADVANCED_FACE ( 'NONE', ( #49 ), #184, .T. ) ;
#100 = CARTESIAN_POINT ( 'NONE',  ( 2.478951750578624051E-14, -8.694992273946205774E-16, 7.099999999999998757 ) ) ;
#101 = PERSON_AND_ORGANIZATION ( #223, #154 ) ;
#102 = DIRECTION ( 'NONE',  ( -3.491481338843133355E-15, 1.224646799147353207E-16, -1.000000000000000000 ) ) ;
#103 = CC_DESIGN_PERSON_AND_ORGANIZATION_ASSIGNMENT ( #61, #17, ( #183 ) ) ;
#104 = FACE_OUTER_BOUND ( 'NONE', #28, .T. ) ;
#105 = APPROVAL_STATUS ( 'not_yet_approved' ) ;
#106 = VERTEX_POINT ( 'NONE', #86 ) ;
#107 = APPLICATION_PROTOCOL_DEFINITION ( 'international standard', 'config_control_design', 1994, #126 ) ;
#108 =( LENGTH_UNIT ( ) NAMED_UNIT ( * ) SI_UNIT ( .MILLI., .METRE. ) );
#109 = DIRECTION ( 'NONE',  ( 0.0000000000000000000, 1.000000000000000000, 0.0000000000000000000 ) ) ;
#110 = LOCAL_TIME ( 10, 12, 23.00000000000000000, #85 ) ;
#111 = EDGE_LOOP ( 'NONE', ( #147 ) ) ;
#112 = APPLICATION_PROTOCOL_DEFINITION ( 'international standard', 'config_control_design', 1994, #139 ) ;
#113 = UNCERTAINTY_MEASURE_WITH_UNIT (LENGTH_MEASURE( 1.000000000000000082E-05 ), #108, 'distance_accuracy_value', 'NONE');
#114 = CLOSED_SHELL ( 'NONE', ( #46, #135, #89, #180, #142 ) ) ;
#115 = EDGE_CURVE ( 'NONE', #5, #5, #149, .T. ) ;
#116 = APPROVAL_ROLE ( '' ) ;
#117 = EDGE_CURVE ( 'NONE', #130, #130, #123, .T. ) ;
#118 = COORDINATED_UNIVERSAL_TIME_OFFSET ( 1, 0, .AHEAD. ) ;
#119 = CYLINDRICAL_SURFACE ( 'NONE', #96, 0.7499999999999986677 ) ;
#120 = APPROVAL_DATE_TIME ( #171, #76 ) ;
#121 = CARTESIAN_POINT ( 'NONE',  ( 9.474296147002787725E-16, -3.323135748004740446E-17, 0.2713546265191266738 ) ) ;
#122 = VERTEX_POINT ( 'NONE', #39 ) ;
#123 = CIRCLE ( 'NONE', #20, 0.7499999999999973355 ) ;
#124 = CC_DESIGN_DATE_AND_TIME_ASSIGNMENT ( #131, #204, ( #205 ) ) ;
#125 = DIRECTION ( 'NONE',  ( -3.491481338843133355E-15, 1.224646799147353207E-16, -1.000000000000000000 ) ) ;
#126 = APPLICATION_CONTEXT ( 'configuration controlled 3d designs of mechanical parts and assemblies' ) ;
#127 = FACE_OUTER_BOUND ( 'NONE', #57, .T. ) ;
#128 = CIRCLE ( 'NONE', #25, 0.6500000000000000222 ) ;
#129 = CIRCLE ( 'NONE', #166, 0.4699999999999994738 ) ;
#130 = VERTEX_POINT ( 'NONE', #65 ) ;
#131 = DATE_AND_TIME ( #62, #70 ) ;
#132 = DIRECTION ( 'NONE',  ( 4.275831445896959482E-31, 1.000000000000000000, 1.224646799147353207E-16 ) ) ;
#133 = SECURITY_CLASSIFICATION_LEVEL ( 'unclassified' ) ;
#134 = MANIFOLD_SOLID_BREP ( 'Corps-Déplacer/Copier1[1]', #114 ) ;
#135 = ADVANCED_FACE ( 'NONE', ( #175, #53 ), #202, .T. ) ;
#136 = CC_DESIGN_PERSON_AND_ORGANIZATION_ASSIGNMENT ( #157, #4, ( #164 ) ) ;
#137 = DIRECTION ( 'NONE',  ( -3.491481338843133355E-15, 1.224646799147353207E-16, -1.000000000000000000 ) ) ;
#138 = APPROVAL_STATUS ( 'not_yet_approved' ) ;
#139 = APPLICATION_CONTEXT ( 'configuration controlled 3d designs of mechanical parts and assemblies' ) ;
#140 = APPROVAL_PERSON_ORGANIZATION ( #101, #76, #173 ) ;
#141 = CARTESIAN_POINT ( 'NONE',  ( 2.648279596610162716E-14, -9.288914407632157571E-16, 7.584974226119286733 ) ) ;
#142 = ADVANCED_FACE ( 'NONE', ( #191 ), #35, .F. ) ;
#143 = FACE_OUTER_BOUND ( 'NONE', #72, .T. ) ;
#144 = ORIENTED_EDGE ( 'NONE', *, *, #199, .F. ) ;
#145 = CARTESIAN_POINT ( 'NONE',  ( 9.474296147002787725E-16, -3.323135748004740446E-17, 0.2713546265191266738 ) ) ;
#146 = PRODUCT_DEFINITION_SHAPE ( 'NONE', 'NONE',  #205 ) ;
#147 = ORIENTED_EDGE ( 'NONE', *, *, #43, .F. ) ;
#148 = APPROVAL_ROLE ( '' ) ;
#149 = CIRCLE ( 'NONE', #177, 0.7500000000000000000 ) ;
#150 = PRODUCT_RELATED_PRODUCT_CATEGORY ( 'detail', '', ( #183 ) ) ;
#151 = DIRECTION ( 'NONE',  ( -4.275831445896958607E-31, -1.000000000000000000, -1.224646799147353207E-16 ) ) ;
#152 = DIRECTION ( 'NONE',  ( 3.491481338843133355E-15, -1.224646799147353207E-16, 1.000000000000000000 ) ) ;
#153 = FACE_OUTER_BOUND ( 'NONE', #111, .T. ) ;
#154 = ORGANIZATION ( 'UNSPECIFIED', 'UNSPECIFIED', '' ) ;
#155 = AXIS2_PLACEMENT_3D ( 'NONE', #79, #77, #78 ) ;
#156 = CARTESIAN_POINT ( 'NONE',  ( 2.478951750578624051E-14, 0.4699999999999986411, 7.099999999999998757 ) ) ;
#157 = PERSON_AND_ORGANIZATION ( #223, #154 ) ;
#158 = CARTESIAN_POINT ( 'NONE',  ( 1.047444401652940007E-13, -3.673940397442059178E-15, 30.00000000000000000 ) ) ;
#159 = DIRECTION ( 'NONE',  ( -3.491481338843133355E-15, 1.224646799147353207E-16, -1.000000000000000000 ) ) ;
#160 = APPROVAL_PERSON_ORGANIZATION ( #174, #56, #148 ) ;
#161 = CARTESIAN_POINT ( 'NONE',  ( 1.043952920314096810E-13, 0.7499999999999963363, 29.89999999999999858 ) ) ;
#162 = EDGE_LOOP ( 'NONE', ( #179 ) ) ;
#163 = EDGE_LOOP ( 'NONE', ( #144 ) ) ;
#164 = PRODUCT_DEFINITION_FORMATION_WITH_SPECIFIED_SOURCE ( 'ANY', '', #183, .NOT_KNOWN. ) ;
#165 = EDGE_LOOP ( 'NONE', ( #69 ) ) ;
#166 = AXIS2_PLACEMENT_3D ( 'NONE', #185, #203, #51 ) ;
#167 = CC_DESIGN_PERSON_AND_ORGANIZATION_ASSIGNMENT ( #207, #50, ( #52 ) ) ;
#168 = VERTEX_POINT ( 'NONE', #192 ) ;
#169 = DATE_AND_TIME ( #36, #196 ) ;
#170 = CIRCLE ( 'NONE', #32, 0.4699999999999994738 ) ;
#171 = DATE_AND_TIME ( #18, #60 ) ;
#172 = DIRECTION ( 'NONE',  ( 4.275831445896958607E-31, 1.000000000000000000, 1.224646799147353207E-16 ) ) ;
#173 = APPROVAL_ROLE ( '' ) ;
#174 = PERSON_AND_ORGANIZATION ( #223, #154 ) ;
#175 = FACE_BOUND ( 'NONE', #163, .T. ) ;
#176 = CC_DESIGN_SECURITY_CLASSIFICATION ( #52, ( #164 ) ) ;
#177 = AXIS2_PLACEMENT_3D ( 'NONE', #209, #41, #37 ) ;
#178 = ADVANCED_BREP_SHAPE_REPRESENTATION ( '957810', ( #134, #59, #222 ), #201 ) ;
#179 = ORIENTED_EDGE ( 'NONE', *, *, #43, .T. ) ;
#180 = ADVANCED_FACE ( 'NONE', ( #64, #206 ), #2, .T. ) ;
#181 = CALENDAR_DATE ( 2021, 8, 10 ) ;
#182 = DIRECTION ( 'NONE',  ( -3.491481338843133355E-15, 1.224646799147353207E-16, -1.000000000000000000 ) ) ;
#183 = PRODUCT ( '957810', '957810', '', ( #34 ) ) ;
#184 = CONICAL_SURFACE ( 'NONE', #218, 0.4699999999999991962, 1.047197551196592968 ) ;
#185 = CARTESIAN_POINT ( 'NONE',  ( 2.478951750578624051E-14, -8.694992273946205774E-16, 7.099999999999998757 ) ) ;
#186 = PERSON_AND_ORGANIZATION ( #223, #154 ) ;
#187 = FACE_OUTER_BOUND ( 'NONE', #216, .T. ) ;
#188 = PERSON_AND_ORGANIZATION ( #223, #154 ) ;
#189 = CC_DESIGN_DATE_AND_TIME_ASSIGNMENT ( #44, #210, ( #52 ) ) ;
#190 = APPROVAL_PERSON_ORGANIZATION ( #186, #10, #116 ) ;
#191 = FACE_OUTER_BOUND ( 'NONE', #11, .T. ) ;
#192 = CARTESIAN_POINT ( 'NONE',  ( 2.478951750578624051E-14, 0.4699999999999986411, 7.099999999999998757 ) ) ;
#193 = COORDINATED_UNIVERSAL_TIME_OFFSET ( 1, 0, .AHEAD. ) ;
#194 = VERTEX_POINT ( 'NONE', #156 ) ;
#195 = CLOSED_SHELL ( 'NONE', ( #99, #84, #73 ) ) ;
#196 = LOCAL_TIME ( 10, 12, 23.00000000000000000, #38 ) ;
#197 = CALENDAR_DATE ( 2021, 8, 10 ) ;
#198 = DIRECTION ( 'NONE',  ( 1.000000000000000000, 0.0000000000000000000, 0.0000000000000000000 ) ) ;
#199 = EDGE_CURVE ( 'NONE', #168, #168, #129, .T. ) ;
#200 = AXIS2_PLACEMENT_3D ( 'NONE', #145, #125, #13 ) ;
#201 =( GEOMETRIC_REPRESENTATION_CONTEXT ( 3 ) GLOBAL_UNCERTAINTY_ASSIGNED_CONTEXT ( ( #113 ) ) GLOBAL_UNIT_ASSIGNED_CONTEXT ( ( #108, #23, #94 ) ) REPRESENTATION_CONTEXT ( 'NONE', 'WORKASPACE' ) );
#202 = CONICAL_SURFACE ( 'NONE', #83, 0.7499999999999973355, 0.5235987755982931535 ) ;
#203 = DIRECTION ( 'NONE',  ( -3.491481338843133355E-15, 1.224646799147353207E-16, -1.000000000000000000 ) ) ;
#204 = DATE_TIME_ROLE ( 'creation_date' ) ;
#205 = PRODUCT_DEFINITION ( 'UNKNOWN', '', #164, #40 ) ;
#206 = FACE_BOUND ( 'NONE', #91, .T. ) ;
#207 = PERSON_AND_ORGANIZATION ( #223, #154 ) ;
#208 = CYLINDRICAL_SURFACE ( 'NONE', #155, 0.4699999999999993627 ) ;
#209 = CARTESIAN_POINT ( 'NONE',  ( 1.043952920314096810E-13, -3.661693929450586610E-15, 29.89999999999999858 ) ) ;
#210 = DATE_TIME_ROLE ( 'classification_date' ) ;
#211 = DIRECTION ( 'NONE',  ( 3.491481338843133355E-15, -1.224646799147353207E-16, 1.000000000000000000 ) ) ;
#212 = SHAPE_DEFINITION_REPRESENTATION ( #146, #178 ) ;
#213 = PLANE ( 'NONE',  #12 ) ;
#214 = ORIENTED_EDGE ( 'NONE', *, *, #117, .F. ) ;
#215 = CC_DESIGN_APPROVAL ( #56, ( #52 ) ) ;
#216 = EDGE_LOOP ( 'NONE', ( #58 ) ) ;
#217 = EDGE_LOOP ( 'NONE', ( #90 ) ) ;
#218 = AXIS2_PLACEMENT_3D ( 'NONE', #121, #3, #66 ) ;
#219 = DIRECTION ( 'NONE',  ( 0.0000000000000000000, 1.000000000000000000, 0.0000000000000000000 ) ) ;
#220 = CC_DESIGN_PERSON_AND_ORGANIZATION_ASSIGNMENT ( #80, #82, ( #164 ) ) ;
#221 = FACE_OUTER_BOUND ( 'NONE', #27, .T. ) ;
#222 = AXIS2_PLACEMENT_3D ( 'NONE', #29, #93, #198 ) ;
#223 = PERSON ( 'UNSPECIFIED', 'UNSPECIFIED', 'UNSPECIFIED', ('UNSPECIFIED'), ('UNSPECIFIED'), ('UNSPECIFIED') ) ;
ENDSEC;
END-ISO-10303-21;
