ISO-10303-21;
HEADER;
FILE_DESCRIPTION (( 'STEP AP203' ),
    '1' );
FILE_NAME ('957808.step',
    '2021-10-08T08:12:22',
    ( '' ),
    ( '' ),
    'SwSTEP 2.0',
    'SolidWorks 2019',
    '' );
FILE_SCHEMA (( 'CONFIG_CONTROL_DESIGN' ));
ENDSEC;

DATA;
#1 = ORGANIZATION ( 'UNSPECIFIED', 'UNSPECIFIED', '' ) ;
#2 = APPROVAL_PERSON_ORGANIZATION ( #162, #150, #124 ) ;
#3 = CONICAL_SURFACE ( 'NONE', #127, 0.7499999999999973355, 0.5235987755982918213 ) ;
#4 = AXIS2_PLACEMENT_3D ( 'NONE', #194, #54, #97 ) ;
#5 = CARTESIAN_POINT ( 'NONE',  ( 0.0000000000000000000, 0.0000000000000000000, 0.0000000000000000000 ) ) ;
#6 = PRODUCT_DEFINITION_FORMATION_WITH_SPECIFIED_SOURCE ( 'ANY', '', #76, .NOT_KNOWN. ) ;
#7 = CARTESIAN_POINT ( 'NONE',  ( 0.0000000000000000000, 0.0000000000000000000, 0.0000000000000000000 ) ) ;
#8 = DIRECTION ( 'NONE',  ( -3.491481338843133355E-15, 1.224646799147353207E-16, -1.000000000000000000 ) ) ;
#9 = APPROVAL_DATE_TIME ( #218, #142 ) ;
#10 = CARTESIAN_POINT ( 'NONE',  ( 9.373505762460206219E-16, -3.287783240047242670E-17, 0.2684678751731785495 ) ) ;
#11 = COORDINATED_UNIVERSAL_TIME_OFFSET ( 1, 0, .AHEAD. ) ;
#12 = DIRECTION ( 'NONE',  ( 3.491481338843133355E-15, -1.224646799147353207E-16, 1.000000000000000000 ) ) ;
#13 = PRODUCT_DEFINITION_SHAPE ( 'NONE', 'NONE',  #15 ) ;
#14 = VERTEX_POINT ( 'NONE', #222 ) ;
#15 = PRODUCT_DEFINITION ( 'UNKNOWN', '', #6, #84 ) ;
#16 = CARTESIAN_POINT ( 'NONE',  ( 1.047444401652940007E-13, 0.6499999999999962474, 30.00000000000000000 ) ) ;
#17 = EDGE_CURVE ( 'NONE', #152, #152, #111, .T. ) ;
#18 = ADVANCED_BREP_SHAPE_REPRESENTATION ( '957808', ( #87, #157, #110 ), #86 ) ;
#19 = APPLICATION_CONTEXT ( 'configuration controlled 3d designs of mechanical parts and assemblies' ) ;
#20 = CIRCLE ( 'NONE', #4, 0.7499999999999973355 ) ;
#21 = EDGE_CURVE ( 'NONE', #101, #101, #196, .T. ) ;
#22 = CARTESIAN_POINT ( 'NONE',  ( 2.478951750578624367E-14, 0.4650000000000001354, 7.099999999999999645 ) ) ;
#23 = COORDINATED_UNIVERSAL_TIME_OFFSET ( 1, 0, .AHEAD. ) ;
#24 = LOCAL_TIME ( 10, 12, 22.00000000000000000, #193 ) ;
#25 = ORIENTED_EDGE ( 'NONE', *, *, #60, .T. ) ;
#26 = CALENDAR_DATE ( 2021, 8, 10 ) ;
#27 = CC_DESIGN_PERSON_AND_ORGANIZATION_ASSIGNMENT ( #207, #107, ( #6 ) ) ;
#28 = DIRECTION ( 'NONE',  ( 0.0000000000000000000, -1.000000000000000000, 0.0000000000000000000 ) ) ;
#29 = APPLICATION_PROTOCOL_DEFINITION ( 'international standard', 'config_control_design', 1994, #19 ) ;
#30 = FACE_OUTER_BOUND ( 'NONE', #219, .T. ) ;
#31 =( NAMED_UNIT ( * ) SI_UNIT ( $, .STERADIAN. ) SOLID_ANGLE_UNIT ( ) );
#32 = DIRECTION ( 'NONE',  ( 3.491481338843133355E-15, -1.224646799147353207E-16, 1.000000000000000000 ) ) ;
#33 = AXIS2_PLACEMENT_3D ( 'NONE', #64, #130, #125 ) ;
#34 = PLANE ( 'NONE',  #33 ) ;
#35 = DIRECTION ( 'NONE',  ( 4.141784826639223829E-31, 1.000000000000000000, 1.165808787618823926E-16 ) ) ;
#36 = APPROVAL_PERSON_ORGANIZATION ( #93, #142, #166 ) ;
#37 = CARTESIAN_POINT ( 'NONE',  ( 1.043952920314096810E-13, 0.7499999999999963363, 29.89999999999999858 ) ) ;
#38 = ADVANCED_FACE ( 'NONE', ( #56, #143 ), #3, .T. ) ;
#39 = VERTEX_POINT ( 'NONE', #100 ) ;
#40 = CLOSED_SHELL ( 'NONE', ( #221, #59, #155 ) ) ;
#41 = APPLICATION_CONTEXT ( 'configuration controlled 3d designs of mechanical parts and assemblies' ) ;
#42 = SECURITY_CLASSIFICATION ( '', '', #210 ) ;
#43 = ORIENTED_EDGE ( 'NONE', *, *, #181, .F. ) ;
#44 = EDGE_CURVE ( 'NONE', #186, #186, #173, .T. ) ;
#45 = AXIS2_PLACEMENT_3D ( 'NONE', #211, #112, #185 ) ;
#46 = ORIENTED_EDGE ( 'NONE', *, *, #60, .F. ) ;
#47 = ORIENTED_EDGE ( 'NONE', *, *, #181, .T. ) ;
#48 = DIRECTION ( 'NONE',  ( 3.491481338843133355E-15, -1.224646799147353207E-16, 1.000000000000000000 ) ) ;
#49 = APPROVAL_DATE_TIME ( #180, #150 ) ;
#50 = AXIS2_PLACEMENT_3D ( 'NONE', #10, #83, #102 ) ;
#51 = LOCAL_TIME ( 10, 12, 22.00000000000000000, #23 ) ;
#52 = AXIS2_PLACEMENT_3D ( 'NONE', #201, #123, #35 ) ;
#53 = CARTESIAN_POINT ( 'NONE',  ( 1.043952920314096810E-13, -3.661693929450586610E-15, 29.89999999999999858 ) ) ;
#54 = DIRECTION ( 'NONE',  ( -3.491481338843133355E-15, 1.224646799147353207E-16, -1.000000000000000000 ) ) ;
#55 = DATE_AND_TIME ( #144, #51 ) ;
#56 = FACE_BOUND ( 'NONE', #138, .T. ) ;
#57 = CIRCLE ( 'NONE', #117, 0.4650000000000010236 ) ;
#58 = FACE_OUTER_BOUND ( 'NONE', #160, .T. ) ;
#59 = ADVANCED_FACE ( 'NONE', ( #95, #214 ), #99, .T. ) ;
#60 = EDGE_CURVE ( 'NONE', #39, #39, #216, .T. ) ;
#61 = ORIENTED_EDGE ( 'NONE', *, *, #21, .T. ) ;
#62 = CYLINDRICAL_SURFACE ( 'NONE', #148, 0.7499999999999986677 ) ;
#63 = DATE_AND_TIME ( #26, #208 ) ;
#64 = CARTESIAN_POINT ( 'NONE',  ( 1.047444401652940007E-13, 4.874219293650981803E-33, 30.00000000000000000 ) ) ;
#65 = APPROVAL_DATE_TIME ( #55, #103 ) ;
#66 = DIRECTION ( 'NONE',  ( -3.491481338843133355E-15, 1.224646799147353207E-16, -1.000000000000000000 ) ) ;
#67 = CC_DESIGN_PERSON_AND_ORGANIZATION_ASSIGNMENT ( #90, #75, ( #6 ) ) ;
#68 = DIRECTION ( 'NONE',  ( -3.491481338843133355E-15, 1.224646799147353207E-16, -1.000000000000000000 ) ) ;
#69 = APPROVAL_STATUS ( 'not_yet_approved' ) ;
#70 = ADVANCED_FACE ( 'NONE', ( #58, #128 ), #62, .T. ) ;
#71 = CC_DESIGN_APPROVAL ( #103, ( #6 ) ) ;
#72 = EDGE_LOOP ( 'NONE', ( #47 ) ) ;
#73 = ORIENTED_EDGE ( 'NONE', *, *, #17, .F. ) ;
#74 = ORIENTED_EDGE ( 'NONE', *, *, #21, .F. ) ;
#75 = PERSON_AND_ORGANIZATION_ROLE ( 'creator' ) ;
#76 = PRODUCT ( '957808', '957808', '', ( #161 ) ) ;
#77 = CARTESIAN_POINT ( 'NONE',  ( 0.0000000000000000000, 0.0000000000000000000, 0.0000000000000000000 ) ) ;
#78 = APPROVAL_STATUS ( 'not_yet_approved' ) ;
#79 = FACE_OUTER_BOUND ( 'NONE', #205, .T. ) ;
#80 = PERSON_AND_ORGANIZATION ( #154, #1 ) ;
#81 = DIRECTION ( 'NONE',  ( -3.491481338843133355E-15, 1.224646799147353207E-16, -1.000000000000000000 ) ) ;
#82 = DIRECTION ( 'NONE',  ( 0.0000000000000000000, 0.0000000000000000000, 1.000000000000000000 ) ) ;
#83 = DIRECTION ( 'NONE',  ( 3.491481338843133355E-15, -1.224646799147353207E-16, 1.000000000000000000 ) ) ;
#84 = DESIGN_CONTEXT ( 'detailed design', #41, 'design' ) ;
#85 = PLANE ( 'NONE',  #167 ) ;
#86 =( GEOMETRIC_REPRESENTATION_CONTEXT ( 3 ) GLOBAL_UNCERTAINTY_ASSIGNED_CONTEXT ( ( #98 ) ) GLOBAL_UNIT_ASSIGNED_CONTEXT ( ( #104, #88, #31 ) ) REPRESENTATION_CONTEXT ( 'NONE', 'WORKASPACE' ) );
#87 = MANIFOLD_SOLID_BREP ( 'Corps-Déplacer/Copier1[1]', #204 ) ;
#88 =( NAMED_UNIT ( * ) PLANE_ANGLE_UNIT ( ) SI_UNIT ( $, .RADIAN. ) );
#89 = AXIS2_PLACEMENT_3D ( 'NONE', #7, #66, #171 ) ;
#90 = PERSON_AND_ORGANIZATION ( #154, #1 ) ;
#91 = DATE_TIME_ROLE ( 'classification_date' ) ;
#92 = EDGE_LOOP ( 'NONE', ( #25 ) ) ;
#93 = PERSON_AND_ORGANIZATION ( #154, #1 ) ;
#94 = EDGE_CURVE ( 'NONE', #14, #14, #20, .T. ) ;
#95 = FACE_OUTER_BOUND ( 'NONE', #158, .T. ) ;
#96 = FACE_BOUND ( 'NONE', #174, .T. ) ;
#97 = DIRECTION ( 'NONE',  ( 0.0000000000000000000, 1.000000000000000000, 0.0000000000000000000 ) ) ;
#98 = UNCERTAINTY_MEASURE_WITH_UNIT (LENGTH_MEASURE( 1.000000000000000082E-05 ), #104, 'distance_accuracy_value', 'NONE');
#99 = CYLINDRICAL_SURFACE ( 'NONE', #89, 0.4650000000000001354 ) ;
#100 = CARTESIAN_POINT ( 'NONE',  ( 2.478951750578624367E-14, 0.4650000000000001354, 7.099999999999999645 ) ) ;
#101 = VERTEX_POINT ( 'NONE', #153 ) ;
#102 = DIRECTION ( 'NONE',  ( -4.141784826639223829E-31, -1.000000000000000000, -1.165808787618823926E-16 ) ) ;
#103 = APPROVAL ( #191, 'UNSPECIFIED' ) ;
#104 =( LENGTH_UNIT ( ) NAMED_UNIT ( * ) SI_UNIT ( .MILLI., .METRE. ) );
#105 = PRODUCT_RELATED_PRODUCT_CATEGORY ( 'detail', '', ( #76 ) ) ;
#106 = DIRECTION ( 'NONE',  ( 1.000000000000000000, 0.0000000000000000000, 0.0000000000000000000 ) ) ;
#107 = PERSON_AND_ORGANIZATION_ROLE ( 'design_supplier' ) ;
#108 = CARTESIAN_POINT ( 'NONE',  ( 2.478951750578624367E-14, -8.694992273946207746E-16, 7.099999999999999645 ) ) ;
#109 = SHAPE_DEFINITION_REPRESENTATION ( #13, #18 ) ;
#110 = AXIS2_PLACEMENT_3D ( 'NONE', #5, #82, #106 ) ;
#111 = CIRCLE ( 'NONE', #139, 0.6500000000000000222 ) ;
#112 = DIRECTION ( 'NONE',  ( -3.491481338843133355E-15, 1.224646799147353207E-16, -1.000000000000000000 ) ) ;
#113 = CALENDAR_DATE ( 2021, 8, 10 ) ;
#114 = PLANE ( 'NONE',  #140 ) ;
#115 = COORDINATED_UNIVERSAL_TIME_OFFSET ( 1, 0, .AHEAD. ) ;
#116 = DIRECTION ( 'NONE',  ( 4.275831445896959482E-31, 1.000000000000000000, 1.224646799147353207E-16 ) ) ;
#117 = AXIS2_PLACEMENT_3D ( 'NONE', #209, #68, #178 ) ;
#118 = DIRECTION ( 'NONE',  ( -4.275831445896958607E-31, -1.000000000000000000, -1.224646799147353207E-16 ) ) ;
#119 = CC_DESIGN_APPROVAL ( #142, ( #15 ) ) ;
#120 = ADVANCED_FACE ( 'NONE', ( #198 ), #34, .F. ) ;
#121 = EDGE_LOOP ( 'NONE', ( #217 ) ) ;
#122 = PERSON_AND_ORGANIZATION ( #154, #1 ) ;
#123 = DIRECTION ( 'NONE',  ( -3.491481338843133355E-15, 1.224646799147353207E-16, -1.000000000000000000 ) ) ;
#124 = APPROVAL_ROLE ( '' ) ;
#125 = DIRECTION ( 'NONE',  ( 4.275831445896958607E-31, 1.000000000000000000, 1.224646799147353207E-16 ) ) ;
#126 = DATE_AND_TIME ( #113, #220 ) ;
#127 = AXIS2_PLACEMENT_3D ( 'NONE', #200, #12, #28 ) ;
#128 = FACE_OUTER_BOUND ( 'NONE', #175, .T. ) ;
#129 = COORDINATED_UNIVERSAL_TIME_OFFSET ( 1, 0, .AHEAD. ) ;
#130 = DIRECTION ( 'NONE',  ( -3.491481338843133355E-15, 1.224646799147353207E-16, -1.000000000000000000 ) ) ;
#131 = PERSON_AND_ORGANIZATION ( #154, #1 ) ;
#132 = CARTESIAN_POINT ( 'NONE',  ( 1.047444401652940007E-13, -3.673940397442059178E-15, 30.00000000000000000 ) ) ;
#133 = VERTEX_POINT ( 'NONE', #22 ) ;
#134 = ADVANCED_FACE ( 'NONE', ( #179 ), #114, .F. ) ;
#135 = CC_DESIGN_APPROVAL ( #150, ( #42 ) ) ;
#136 = APPROVAL_PERSON_ORGANIZATION ( #131, #103, #141 ) ;
#137 = CONICAL_SURFACE ( 'NONE', #45, 0.6500000000000000222, 0.7853981633974516097 ) ;
#138 = EDGE_LOOP ( 'NONE', ( #46 ) ) ;
#139 = AXIS2_PLACEMENT_3D ( 'NONE', #132, #81, #163 ) ;
#140 = AXIS2_PLACEMENT_3D ( 'NONE', #182, #48, #145 ) ;
#141 = APPROVAL_ROLE ( '' ) ;
#142 = APPROVAL ( #69, 'UNSPECIFIED' ) ;
#143 = FACE_OUTER_BOUND ( 'NONE', #121, .T. ) ;
#144 = CALENDAR_DATE ( 2021, 8, 10 ) ;
#145 = DIRECTION ( 'NONE',  ( -4.275831445896958607E-31, -1.000000000000000000, -1.224646799147353207E-16 ) ) ;
#146 = PERSON_AND_ORGANIZATION_ROLE ( 'design_owner' ) ;
#147 = DIRECTION ( 'NONE',  ( 0.0000000000000000000, 1.000000000000000000, 0.0000000000000000000 ) ) ;
#148 = AXIS2_PLACEMENT_3D ( 'NONE', #77, #165, #116 ) ;
#149 = EDGE_LOOP ( 'NONE', ( #43 ) ) ;
#150 = APPROVAL ( #78, 'UNSPECIFIED' ) ;
#151 = CARTESIAN_POINT ( 'NONE',  ( 2.478951750578624367E-14, 3.486941494688813601E-33, 7.099999999999999645 ) ) ;
#152 = VERTEX_POINT ( 'NONE', #16 ) ;
#153 = CARTESIAN_POINT ( 'NONE',  ( 9.373505762460208191E-16, 0.4649999999999991362, 0.2684678751731786051 ) ) ;
#154 = PERSON ( 'UNSPECIFIED', 'UNSPECIFIED', 'UNSPECIFIED', ('UNSPECIFIED'), ('UNSPECIFIED'), ('UNSPECIFIED') ) ;
#155 = ADVANCED_FACE ( 'NONE', ( #170 ), #85, .T. ) ;
#156 = LOCAL_TIME ( 10, 12, 22.00000000000000000, #11 ) ;
#157 = MANIFOLD_SOLID_BREP ( 'Corps-Déplacer/Copier1[2]', #40 ) ;
#158 = EDGE_LOOP ( 'NONE', ( #74 ) ) ;
#159 = AXIS2_PLACEMENT_3D ( 'NONE', #53, #8, #184 ) ;
#160 = EDGE_LOOP ( 'NONE', ( #189 ) ) ;
#161 = MECHANICAL_CONTEXT ( 'NONE', #19, 'mechanical' ) ;
#162 = PERSON_AND_ORGANIZATION ( #154, #1 ) ;
#163 = DIRECTION ( 'NONE',  ( 0.0000000000000000000, 1.000000000000000000, 0.0000000000000000000 ) ) ;
#164 = PERSON_AND_ORGANIZATION_ROLE ( 'classification_officer' ) ;
#165 = DIRECTION ( 'NONE',  ( -3.491481338843133355E-15, 1.224646799147353207E-16, -1.000000000000000000 ) ) ;
#166 = APPROVAL_ROLE ( '' ) ;
#167 = AXIS2_PLACEMENT_3D ( 'NONE', #151, #32, #118 ) ;
#168 = APPLICATION_PROTOCOL_DEFINITION ( 'international standard', 'config_control_design', 1994, #41 ) ;
#169 = CC_DESIGN_DATE_AND_TIME_ASSIGNMENT ( #126, #91, ( #42 ) ) ;
#170 = FACE_OUTER_BOUND ( 'NONE', #149, .T. ) ;
#171 = DIRECTION ( 'NONE',  ( 4.275831445896958607E-31, 1.000000000000000000, 1.224646799147353207E-16 ) ) ;
#172 = CONICAL_SURFACE ( 'NONE', #50, 0.4649999999999991918, 1.047197551196592968 ) ;
#173 = CIRCLE ( 'NONE', #159, 0.7500000000000000000 ) ;
#174 = EDGE_LOOP ( 'NONE', ( #190 ) ) ;
#175 = EDGE_LOOP ( 'NONE', ( #188 ) ) ;
#176 = EDGE_LOOP ( 'NONE', ( #73 ) ) ;
#177 = PERSON_AND_ORGANIZATION ( #154, #1 ) ;
#178 = DIRECTION ( 'NONE',  ( 0.0000000000000000000, 1.000000000000000000, 0.0000000000000000000 ) ) ;
#179 = FACE_OUTER_BOUND ( 'NONE', #92, .T. ) ;
#180 = DATE_AND_TIME ( #195, #24 ) ;
#181 = EDGE_CURVE ( 'NONE', #133, #133, #57, .T. ) ;
#182 = CARTESIAN_POINT ( 'NONE',  ( 2.478951750578624367E-14, 3.486941494688813601E-33, 7.099999999999999645 ) ) ;
#183 = CC_DESIGN_SECURITY_CLASSIFICATION ( #42, ( #6 ) ) ;
#184 = DIRECTION ( 'NONE',  ( 0.0000000000000000000, 1.000000000000000000, 0.0000000000000000000 ) ) ;
#185 = DIRECTION ( 'NONE',  ( 0.0000000000000000000, 1.000000000000000000, 0.0000000000000000000 ) ) ;
#186 = VERTEX_POINT ( 'NONE', #37 ) ;
#187 = AXIS2_PLACEMENT_3D ( 'NONE', #108, #192, #147 ) ;
#188 = ORIENTED_EDGE ( 'NONE', *, *, #44, .T. ) ;
#189 = ORIENTED_EDGE ( 'NONE', *, *, #94, .F. ) ;
#190 = ORIENTED_EDGE ( 'NONE', *, *, #17, .T. ) ;
#191 = APPROVAL_STATUS ( 'not_yet_approved' ) ;
#192 = DIRECTION ( 'NONE',  ( -3.491481338843133355E-15, 1.224646799147353207E-16, -1.000000000000000000 ) ) ;
#193 = COORDINATED_UNIVERSAL_TIME_OFFSET ( 1, 0, .AHEAD. ) ;
#194 = CARTESIAN_POINT ( 'NONE',  ( 2.651303308146439904E-14, -9.299520160019406041E-16, 7.593634480157131605 ) ) ;
#195 = CALENDAR_DATE ( 2021, 8, 10 ) ;
#196 = CIRCLE ( 'NONE', #52, 0.4649999999999991918 ) ;
#197 = CC_DESIGN_PERSON_AND_ORGANIZATION_ASSIGNMENT ( #122, #215, ( #15 ) ) ;
#198 = FACE_OUTER_BOUND ( 'NONE', #176, .T. ) ;
#199 = DATE_TIME_ROLE ( 'creation_date' ) ;
#200 = CARTESIAN_POINT ( 'NONE',  ( 2.651303308146439904E-14, -9.299520160019406041E-16, 7.593634480157131605 ) ) ;
#201 = CARTESIAN_POINT ( 'NONE',  ( 9.373505762460206219E-16, -3.287783240047242670E-17, 0.2684678751731785495 ) ) ;
#202 = CC_DESIGN_DATE_AND_TIME_ASSIGNMENT ( #63, #199, ( #15 ) ) ;
#203 = CC_DESIGN_PERSON_AND_ORGANIZATION_ASSIGNMENT ( #177, #164, ( #42 ) ) ;
#204 = CLOSED_SHELL ( 'NONE', ( #134, #38, #70, #213, #120 ) ) ;
#205 = EDGE_LOOP ( 'NONE', ( #206 ) ) ;
#206 = ORIENTED_EDGE ( 'NONE', *, *, #44, .F. ) ;
#207 = PERSON_AND_ORGANIZATION ( #154, #1 ) ;
#208 = LOCAL_TIME ( 10, 12, 22.00000000000000000, #129 ) ;
#209 = CARTESIAN_POINT ( 'NONE',  ( 2.478951750578624367E-14, -8.694992273946207746E-16, 7.099999999999999645 ) ) ;
#210 = SECURITY_CLASSIFICATION_LEVEL ( 'unclassified' ) ;
#211 = CARTESIAN_POINT ( 'NONE',  ( 1.047444401652940007E-13, -3.673940397442059178E-15, 30.00000000000000000 ) ) ;
#212 = CALENDAR_DATE ( 2021, 8, 10 ) ;
#213 = ADVANCED_FACE ( 'NONE', ( #79, #96 ), #137, .T. ) ;
#214 = FACE_OUTER_BOUND ( 'NONE', #72, .T. ) ;
#215 = PERSON_AND_ORGANIZATION_ROLE ( 'creator' ) ;
#216 = CIRCLE ( 'NONE', #187, 0.4650000000000010236 ) ;
#217 = ORIENTED_EDGE ( 'NONE', *, *, #94, .T. ) ;
#218 = DATE_AND_TIME ( #212, #156 ) ;
#219 = EDGE_LOOP ( 'NONE', ( #61 ) ) ;
#220 = LOCAL_TIME ( 10, 12, 22.00000000000000000, #115 ) ;
#221 = ADVANCED_FACE ( 'NONE', ( #30 ), #172, .T. ) ;
#222 = CARTESIAN_POINT ( 'NONE',  ( 2.651303308146439904E-14, 0.7499999999999963363, 7.593634480157131605 ) ) ;
#223 = CC_DESIGN_PERSON_AND_ORGANIZATION_ASSIGNMENT ( #80, #146, ( #76 ) ) ;
ENDSEC;
END-ISO-10303-21;
