ISO-10303-21;
HEADER;
FILE_DESCRIPTION (( 'STEP AP203' ),
    '1' );
FILE_NAME ('957806.step',
    '2021-10-08T08:12:21',
    ( '' ),
    ( '' ),
    'SwSTEP 2.0',
    'SolidWorks 2019',
    '' );
FILE_SCHEMA (( 'CONFIG_CONTROL_DESIGN' ));
ENDSEC;

DATA;
#1 = ORIENTED_EDGE ( 'NONE', *, *, #163, .F. ) ;
#2 = AXIS2_PLACEMENT_3D ( 'NONE', #220, #48, #169 ) ;
#3 = CARTESIAN_POINT ( 'NONE',  ( 1.047444401652940007E-13, -3.673940397442059178E-15, 30.00000000000000000 ) ) ;
#4 = PERSON_AND_ORGANIZATION ( #57, #218 ) ;
#5 = FACE_BOUND ( 'NONE', #30, .T. ) ;
#6 = VERTEX_POINT ( 'NONE', #72 ) ;
#7 = DIRECTION ( 'NONE',  ( 4.275831445896959482E-31, 1.000000000000000000, 1.224646799147353207E-16 ) ) ;
#8 = APPROVAL_PERSON_ORGANIZATION ( #4, #106, #53 ) ;
#9 = ADVANCED_FACE ( 'NONE', ( #158, #5 ), #23, .T. ) ;
#10 = CALENDAR_DATE ( 2021, 8, 10 ) ;
#11 = CC_DESIGN_PERSON_AND_ORGANIZATION_ASSIGNMENT ( #44, #182, ( #201 ) ) ;
#12 = CC_DESIGN_APPROVAL ( #173, ( #201 ) ) ;
#13 = APPLICATION_CONTEXT ( 'configuration controlled 3d designs of mechanical parts and assemblies' ) ;
#14 = DIRECTION ( 'NONE',  ( -4.275831445896958607E-31, -1.000000000000000000, -1.224646799147353207E-16 ) ) ;
#15 = EDGE_CURVE ( 'NONE', #18, #18, #132, .T. ) ;
#16 = AXIS2_PLACEMENT_3D ( 'NONE', #117, #157, #136 ) ;
#17 = CARTESIAN_POINT ( 'NONE',  ( 0.0000000000000000000, 0.0000000000000000000, 0.0000000000000000000 ) ) ;
#18 = VERTEX_POINT ( 'NONE', #55 ) ;
#19 = DIRECTION ( 'NONE',  ( -3.491481338843133355E-15, 1.224646799147353207E-16, -1.000000000000000000 ) ) ;
#20 = CC_DESIGN_PERSON_AND_ORGANIZATION_ASSIGNMENT ( #63, #64, ( #201 ) ) ;
#21 = LOCAL_TIME ( 10, 12, 21.00000000000000000, #141 ) ;
#22 = FACE_OUTER_BOUND ( 'NONE', #210, .T. ) ;
#23 = CONICAL_SURFACE ( 'NONE', #103, 0.6500000000000000222, 0.7853981633974516097 ) ;
#24 = PLANE ( 'NONE',  #80 ) ;
#25 = ORIENTED_EDGE ( 'NONE', *, *, #188, .F. ) ;
#26 = FACE_BOUND ( 'NONE', #32, .T. ) ;
#27 = AXIS2_PLACEMENT_3D ( 'NONE', #118, #19, #91 ) ;
#28 = ORIENTED_EDGE ( 'NONE', *, *, #71, .T. ) ;
#29 = ADVANCED_FACE ( 'NONE', ( #65 ), #81, .T. ) ;
#30 = EDGE_LOOP ( 'NONE', ( #28 ) ) ;
#31 =( GEOMETRIC_REPRESENTATION_CONTEXT ( 3 ) GLOBAL_UNCERTAINTY_ASSIGNED_CONTEXT ( ( #79 ) ) GLOBAL_UNIT_ASSIGNED_CONTEXT ( ( #37, #208, #123 ) ) REPRESENTATION_CONTEXT ( 'NONE', 'WORKASPACE' ) );
#32 = EDGE_LOOP ( 'NONE', ( #1 ) ) ;
#33 = CARTESIAN_POINT ( 'NONE',  ( 2.663398154291549922E-14, -9.341943169568401894E-16, 7.628275496308508430 ) ) ;
#34 = CIRCLE ( 'NONE', #139, 0.6500000000000000222 ) ;
#35 = ADVANCED_FACE ( 'NONE', ( #22 ), #181, .T. ) ;
#36 = APPROVAL_PERSON_ORGANIZATION ( #88, #173, #100 ) ;
#37 =( LENGTH_UNIT ( ) NAMED_UNIT ( * ) SI_UNIT ( .MILLI., .METRE. ) );
#38 = PERSON_AND_ORGANIZATION_ROLE ( 'creator' ) ;
#39 = PERSON_AND_ORGANIZATION_ROLE ( 'classification_officer' ) ;
#40 = CLOSED_SHELL ( 'NONE', ( #29, #160, #35 ) ) ;
#41 = AXIS2_PLACEMENT_3D ( 'NONE', #69, #138, #50 ) ;
#42 = CARTESIAN_POINT ( 'NONE',  ( 1.047444401652940007E-13, -3.673940397442059178E-15, 30.00000000000000000 ) ) ;
#43 = CC_DESIGN_PERSON_AND_ORGANIZATION_ASSIGNMENT ( #96, #38, ( #84 ) ) ;
#44 = PERSON_AND_ORGANIZATION ( #57, #218 ) ;
#45 = MANIFOLD_SOLID_BREP ( 'Corps-Déplacer/Copier1[2]', #40 ) ;
#46 = MANIFOLD_SOLID_BREP ( 'Corps-Déplacer/Copier1[1]', #75 ) ;
#47 = ORIENTED_EDGE ( 'NONE', *, *, #71, .F. ) ;
#48 = DIRECTION ( 'NONE',  ( 3.491481338843133355E-15, -1.224646799147353207E-16, 1.000000000000000000 ) ) ;
#49 = EDGE_LOOP ( 'NONE', ( #199 ) ) ;
#50 = DIRECTION ( 'NONE',  ( 0.0000000000000000000, 1.000000000000000000, 0.0000000000000000000 ) ) ;
#51 = DIRECTION ( 'NONE',  ( 0.0000000000000000000, 1.000000000000000000, 0.0000000000000000000 ) ) ;
#52 = ADVANCED_FACE ( 'NONE', ( #112 ), #24, .F. ) ;
#53 = APPROVAL_ROLE ( '' ) ;
#54 = LOCAL_TIME ( 10, 12, 21.00000000000000000, #146 ) ;
#55 = CARTESIAN_POINT ( 'NONE',  ( 2.663398154291549922E-14, 0.7499999999999963363, 7.628275496308508430 ) ) ;
#56 = APPLICATION_PROTOCOL_DEFINITION ( 'international standard', 'config_control_design', 1994, #13 ) ;
#57 = PERSON ( 'UNSPECIFIED', 'UNSPECIFIED', 'UNSPECIFIED', ('UNSPECIFIED'), ('UNSPECIFIED'), ('UNSPECIFIED') ) ;
#58 = DIRECTION ( 'NONE',  ( 0.0000000000000000000, 1.000000000000000000, 0.0000000000000000000 ) ) ;
#59 = DATE_AND_TIME ( #211, #54 ) ;
#60 = DIRECTION ( 'NONE',  ( -4.275831445896958607E-31, -1.000000000000000000, -1.224646799147353207E-16 ) ) ;
#61 = CALENDAR_DATE ( 2021, 8, 10 ) ;
#62 = CARTESIAN_POINT ( 'NONE',  ( 1.047444401652940007E-13, 4.874219293650981803E-33, 30.00000000000000000 ) ) ;
#63 = PERSON_AND_ORGANIZATION ( #57, #218 ) ;
#64 = PERSON_AND_ORGANIZATION_ROLE ( 'creator' ) ;
#65 = FACE_OUTER_BOUND ( 'NONE', #49, .T. ) ;
#66 = PRODUCT_RELATED_PRODUCT_CATEGORY ( 'detail', '', ( #149 ) ) ;
#67 = AXIS2_PLACEMENT_3D ( 'NONE', #108, #175, #7 ) ;
#68 = APPROVAL_STATUS ( 'not_yet_approved' ) ;
#69 = CARTESIAN_POINT ( 'NONE',  ( 2.478951750578624051E-14, -8.694992273946205774E-16, 7.099999999999998757 ) ) ;
#70 = DATE_TIME_ROLE ( 'classification_date' ) ;
#71 = EDGE_CURVE ( 'NONE', #110, #110, #34, .T. ) ;
#72 = CARTESIAN_POINT ( 'NONE',  ( 2.478951750578624051E-14, 0.4449999999999992295, 7.099999999999998757 ) ) ;
#73 = CYLINDRICAL_SURFACE ( 'NONE', #67, 0.7499999999999986677 ) ;
#74 = CARTESIAN_POINT ( 'NONE',  ( 0.0000000000000000000, 0.0000000000000000000, 0.0000000000000000000 ) ) ;
#75 = CLOSED_SHELL ( 'NONE', ( #52, #154, #144, #9, #97 ) ) ;
#76 = CARTESIAN_POINT ( 'NONE',  ( 2.478951750578624051E-14, 1.095581431294609838E-31, 7.099999999999998757 ) ) ;
#77 = CIRCLE ( 'NONE', #27, 0.4450000000000000622 ) ;
#78 = DIRECTION ( 'NONE',  ( 0.0000000000000000000, 0.0000000000000000000, 1.000000000000000000 ) ) ;
#79 = UNCERTAINTY_MEASURE_WITH_UNIT (LENGTH_MEASURE( 1.000000000000000082E-05 ), #37, 'distance_accuracy_value', 'NONE');
#80 = AXIS2_PLACEMENT_3D ( 'NONE', #76, #166, #60 ) ;
#81 = CONICAL_SURFACE ( 'NONE', #174, 0.4449999999999993405, 1.047197551196592968 ) ;
#82 = APPLICATION_CONTEXT ( 'configuration controlled 3d designs of mechanical parts and assemblies' ) ;
#83 = FACE_OUTER_BOUND ( 'NONE', #87, .T. ) ;
#84 = PRODUCT_DEFINITION ( 'UNKNOWN', '', #201, #94 ) ;
#85 = DIRECTION ( 'NONE',  ( 4.275831445896958607E-31, 1.000000000000000000, 1.224646799147353207E-16 ) ) ;
#86 = DIRECTION ( 'NONE',  ( -3.491481338843133355E-15, 1.224646799147353207E-16, -1.000000000000000000 ) ) ;
#87 = EDGE_LOOP ( 'NONE', ( #47 ) ) ;
#88 = PERSON_AND_ORGANIZATION ( #57, #218 ) ;
#89 = ORIENTED_EDGE ( 'NONE', *, *, #15, .F. ) ;
#90 = CC_DESIGN_SECURITY_CLASSIFICATION ( #105, ( #201 ) ) ;
#91 = DIRECTION ( 'NONE',  ( 0.0000000000000000000, 1.000000000000000000, 0.0000000000000000000 ) ) ;
#92 = CIRCLE ( 'NONE', #41, 0.4450000000000000622 ) ;
#93 = CARTESIAN_POINT ( 'NONE',  ( 1.047444401652940007E-13, 0.6499999999999962474, 30.00000000000000000 ) ) ;
#94 = DESIGN_CONTEXT ( 'detailed design', #13, 'design' ) ;
#95 = VERTEX_POINT ( 'NONE', #164 ) ;
#96 = PERSON_AND_ORGANIZATION ( #57, #218 ) ;
#97 = ADVANCED_FACE ( 'NONE', ( #83 ), #153, .F. ) ;
#98 = DATE_AND_TIME ( #222, #115 ) ;
#99 = EDGE_LOOP ( 'NONE', ( #25 ) ) ;
#100 = APPROVAL_ROLE ( '' ) ;
#101 = DIRECTION ( 'NONE',  ( 4.275831445896958607E-31, 1.000000000000000000, 1.224646799147352961E-16 ) ) ;
#102 = CARTESIAN_POINT ( 'NONE',  ( 8.970344224289876253E-16, -3.146373208217254646E-17, 0.2569208697893859417 ) ) ;
#103 = AXIS2_PLACEMENT_3D ( 'NONE', #3, #142, #51 ) ;
#104 = CYLINDRICAL_SURFACE ( 'NONE', #185, 0.4449999999999997291 ) ;
#105 = SECURITY_CLASSIFICATION ( '', '', #147 ) ;
#106 = APPROVAL ( #68, 'UNSPECIFIED' ) ;
#107 = CARTESIAN_POINT ( 'NONE',  ( 2.478951750578624051E-14, 0.4449999999999992295, 7.099999999999998757 ) ) ;
#108 = CARTESIAN_POINT ( 'NONE',  ( 0.0000000000000000000, 0.0000000000000000000, 0.0000000000000000000 ) ) ;
#109 = COORDINATED_UNIVERSAL_TIME_OFFSET ( 1, 0, .AHEAD. ) ;
#110 = VERTEX_POINT ( 'NONE', #93 ) ;
#111 = PERSON_AND_ORGANIZATION ( #57, #218 ) ;
#112 = FACE_OUTER_BOUND ( 'NONE', #186, .T. ) ;
#113 = CIRCLE ( 'NONE', #16, 0.4449999999999993405 ) ;
#114 = CC_DESIGN_DATE_AND_TIME_ASSIGNMENT ( #59, #70, ( #105 ) ) ;
#115 = LOCAL_TIME ( 10, 12, 21.00000000000000000, #215 ) ;
#116 = ORIENTED_EDGE ( 'NONE', *, *, #196, .T. ) ;
#117 = CARTESIAN_POINT ( 'NONE',  ( 8.970344224289876253E-16, -3.146373208217254646E-17, 0.2569208697893859417 ) ) ;
#118 = CARTESIAN_POINT ( 'NONE',  ( 2.478951750578624051E-14, -8.694992273946205774E-16, 7.099999999999998757 ) ) ;
#119 = CC_DESIGN_PERSON_AND_ORGANIZATION_ASSIGNMENT ( #177, #212, ( #149 ) ) ;
#120 = DIRECTION ( 'NONE',  ( -4.327932459297165440E-31, -1.000000000000000000, -1.218204688185961789E-16 ) ) ;
#121 = LOCAL_TIME ( 10, 12, 21.00000000000000000, #172 ) ;
#122 = APPROVAL_STATUS ( 'not_yet_approved' ) ;
#123 =( NAMED_UNIT ( * ) SI_UNIT ( $, .STERADIAN. ) SOLID_ANGLE_UNIT ( ) );
#124 = DATE_AND_TIME ( #190, #159 ) ;
#125 = FACE_OUTER_BOUND ( 'NONE', #135, .T. ) ;
#126 = CONICAL_SURFACE ( 'NONE', #2, 0.7499999999999973355, 0.5235987755982930425 ) ;
#127 = EDGE_LOOP ( 'NONE', ( #209 ) ) ;
#128 = PERSON_AND_ORGANIZATION ( #57, #218 ) ;
#129 = MECHANICAL_CONTEXT ( 'NONE', #82, 'mechanical' ) ;
#130 = VERTEX_POINT ( 'NONE', #107 ) ;
#131 = DIRECTION ( 'NONE',  ( -3.491481338843133355E-15, 1.224646799147353207E-16, -1.000000000000000000 ) ) ;
#132 = CIRCLE ( 'NONE', #205, 0.7499999999999973355 ) ;
#133 = DIRECTION ( 'NONE',  ( -3.491481338843133355E-15, 1.224646799147353207E-16, -1.000000000000000000 ) ) ;
#134 = CC_DESIGN_PERSON_AND_ORGANIZATION_ASSIGNMENT ( #111, #39, ( #105 ) ) ;
#135 = EDGE_LOOP ( 'NONE', ( #89 ) ) ;
#136 = DIRECTION ( 'NONE',  ( 4.327932459297165440E-31, 1.000000000000000000, 1.218204688185961789E-16 ) ) ;
#137 = DIRECTION ( 'NONE',  ( 0.0000000000000000000, 1.000000000000000000, 0.0000000000000000000 ) ) ;
#138 = DIRECTION ( 'NONE',  ( -3.491481338843133355E-15, 1.224646799147353207E-16, -1.000000000000000000 ) ) ;
#139 = AXIS2_PLACEMENT_3D ( 'NONE', #42, #131, #150 ) ;
#140 = CC_DESIGN_APPROVAL ( #161, ( #84 ) ) ;
#141 = COORDINATED_UNIVERSAL_TIME_OFFSET ( 1, 0, .AHEAD. ) ;
#142 = DIRECTION ( 'NONE',  ( -3.491481338843133355E-15, 1.224646799147353207E-16, -1.000000000000000000 ) ) ;
#143 = ORIENTED_EDGE ( 'NONE', *, *, #163, .T. ) ;
#144 = ADVANCED_FACE ( 'NONE', ( #125, #193 ), #73, .T. ) ;
#145 = CARTESIAN_POINT ( 'NONE',  ( 1.043952920314096810E-13, -3.661693929450586610E-15, 29.89999999999999858 ) ) ;
#146 = COORDINATED_UNIVERSAL_TIME_OFFSET ( 1, 0, .AHEAD. ) ;
#147 = SECURITY_CLASSIFICATION_LEVEL ( 'unclassified' ) ;
#148 = APPLICATION_PROTOCOL_DEFINITION ( 'international standard', 'config_control_design', 1994, #82 ) ;
#149 = PRODUCT ( '957806', '957806', '', ( #129 ) ) ;
#150 = DIRECTION ( 'NONE',  ( 0.0000000000000000000, 1.000000000000000000, 0.0000000000000000000 ) ) ;
#151 = AXIS2_PLACEMENT_3D ( 'NONE', #74, #78, #217 ) ;
#152 = EDGE_CURVE ( 'NONE', #178, #178, #206, .T. ) ;
#153 = PLANE ( 'NONE',  #223 ) ;
#154 = ADVANCED_FACE ( 'NONE', ( #26, #167 ), #126, .T. ) ;
#155 = AXIS2_PLACEMENT_3D ( 'NONE', #165, #195, #14 ) ;
#156 = ADVANCED_BREP_SHAPE_REPRESENTATION ( '957806', ( #46, #45, #151 ), #31 ) ;
#157 = DIRECTION ( 'NONE',  ( -3.491481338843133355E-15, 1.224646799147353207E-16, -1.000000000000000000 ) ) ;
#158 = FACE_OUTER_BOUND ( 'NONE', #202, .T. ) ;
#159 = LOCAL_TIME ( 10, 12, 21.00000000000000000, #109 ) ;
#160 = ADVANCED_FACE ( 'NONE', ( #204, #170 ), #104, .T. ) ;
#161 = APPROVAL ( #122, 'UNSPECIFIED' ) ;
#162 = AXIS2_PLACEMENT_3D ( 'NONE', #145, #133, #58 ) ;
#163 = EDGE_CURVE ( 'NONE', #130, #130, #92, .T. ) ;
#164 = CARTESIAN_POINT ( 'NONE',  ( 8.970344224289878225E-16, 0.4449999999999992850, 0.2569208697893859972 ) ) ;
#165 = CARTESIAN_POINT ( 'NONE',  ( 2.478951750578624051E-14, 1.095581431294609838E-31, 7.099999999999998757 ) ) ;
#166 = DIRECTION ( 'NONE',  ( 3.491481338843133355E-15, -1.224646799147353207E-16, 1.000000000000000000 ) ) ;
#167 = FACE_OUTER_BOUND ( 'NONE', #127, .T. ) ;
#168 = APPROVAL_PERSON_ORGANIZATION ( #128, #161, #207 ) ;
#169 = DIRECTION ( 'NONE',  ( 0.0000000000000000000, -1.000000000000000000, 0.0000000000000000000 ) ) ;
#170 = FACE_OUTER_BOUND ( 'NONE', #191, .T. ) ;
#171 = DIRECTION ( 'NONE',  ( 3.491481338843133355E-15, -1.224646799147353207E-16, 1.000000000000000000 ) ) ;
#172 = COORDINATED_UNIVERSAL_TIME_OFFSET ( 1, 0, .AHEAD. ) ;
#173 = APPROVAL ( #183, 'UNSPECIFIED' ) ;
#174 = AXIS2_PLACEMENT_3D ( 'NONE', #102, #171, #120 ) ;
#175 = DIRECTION ( 'NONE',  ( -3.491481338843133355E-15, 1.224646799147353207E-16, -1.000000000000000000 ) ) ;
#176 = APPROVAL_DATE_TIME ( #124, #161 ) ;
#177 = PERSON_AND_ORGANIZATION ( #57, #218 ) ;
#178 = VERTEX_POINT ( 'NONE', #214 ) ;
#179 = APPROVAL_DATE_TIME ( #219, #106 ) ;
#180 = ORIENTED_EDGE ( 'NONE', *, *, #196, .F. ) ;
#181 = PLANE ( 'NONE',  #155 ) ;
#182 = PERSON_AND_ORGANIZATION_ROLE ( 'design_supplier' ) ;
#183 = APPROVAL_STATUS ( 'not_yet_approved' ) ;
#184 = ORIENTED_EDGE ( 'NONE', *, *, #152, .F. ) ;
#185 = AXIS2_PLACEMENT_3D ( 'NONE', #17, #86, #101 ) ;
#186 = EDGE_LOOP ( 'NONE', ( #143 ) ) ;
#187 = DIRECTION ( 'NONE',  ( -3.491481338843133355E-15, 1.224646799147353207E-16, -1.000000000000000000 ) ) ;
#188 = EDGE_CURVE ( 'NONE', #95, #95, #113, .T. ) ;
#189 = DATE_AND_TIME ( #61, #121 ) ;
#190 = CALENDAR_DATE ( 2021, 8, 10 ) ;
#191 = EDGE_LOOP ( 'NONE', ( #116 ) ) ;
#192 = CC_DESIGN_APPROVAL ( #106, ( #105 ) ) ;
#193 = FACE_OUTER_BOUND ( 'NONE', #197, .T. ) ;
#194 = DIRECTION ( 'NONE',  ( -3.491481338843133355E-15, 1.224646799147353207E-16, -1.000000000000000000 ) ) ;
#195 = DIRECTION ( 'NONE',  ( 3.491481338843133355E-15, -1.224646799147353207E-16, 1.000000000000000000 ) ) ;
#196 = EDGE_CURVE ( 'NONE', #6, #6, #77, .T. ) ;
#197 = EDGE_LOOP ( 'NONE', ( #200 ) ) ;
#198 = PRODUCT_DEFINITION_SHAPE ( 'NONE', 'NONE',  #84 ) ;
#199 = ORIENTED_EDGE ( 'NONE', *, *, #188, .T. ) ;
#200 = ORIENTED_EDGE ( 'NONE', *, *, #152, .T. ) ;
#201 = PRODUCT_DEFINITION_FORMATION_WITH_SPECIFIED_SOURCE ( 'ANY', '', #149, .NOT_KNOWN. ) ;
#202 = EDGE_LOOP ( 'NONE', ( #184 ) ) ;
#203 = DATE_TIME_ROLE ( 'creation_date' ) ;
#204 = FACE_OUTER_BOUND ( 'NONE', #99, .T. ) ;
#205 = AXIS2_PLACEMENT_3D ( 'NONE', #33, #187, #137 ) ;
#206 = CIRCLE ( 'NONE', #162, 0.7500000000000000000 ) ;
#207 = APPROVAL_ROLE ( '' ) ;
#208 =( NAMED_UNIT ( * ) PLANE_ANGLE_UNIT ( ) SI_UNIT ( $, .RADIAN. ) );
#209 = ORIENTED_EDGE ( 'NONE', *, *, #15, .T. ) ;
#210 = EDGE_LOOP ( 'NONE', ( #180 ) ) ;
#211 = CALENDAR_DATE ( 2021, 8, 10 ) ;
#212 = PERSON_AND_ORGANIZATION_ROLE ( 'design_owner' ) ;
#213 = CC_DESIGN_DATE_AND_TIME_ASSIGNMENT ( #189, #203, ( #84 ) ) ;
#214 = CARTESIAN_POINT ( 'NONE',  ( 1.043952920314096810E-13, 0.7499999999999963363, 29.89999999999999858 ) ) ;
#215 = COORDINATED_UNIVERSAL_TIME_OFFSET ( 1, 0, .AHEAD. ) ;
#216 = SHAPE_DEFINITION_REPRESENTATION ( #198, #156 ) ;
#217 = DIRECTION ( 'NONE',  ( 1.000000000000000000, 0.0000000000000000000, 0.0000000000000000000 ) ) ;
#218 = ORGANIZATION ( 'UNSPECIFIED', 'UNSPECIFIED', '' ) ;
#219 = DATE_AND_TIME ( #10, #21 ) ;
#220 = CARTESIAN_POINT ( 'NONE',  ( 2.663398154291549922E-14, -9.341943169568401894E-16, 7.628275496308508430 ) ) ;
#221 = APPROVAL_DATE_TIME ( #98, #173 ) ;
#222 = CALENDAR_DATE ( 2021, 8, 10 ) ;
#223 = AXIS2_PLACEMENT_3D ( 'NONE', #62, #194, #85 ) ;
ENDSEC;
END-ISO-10303-21;
