ISO-10303-21;
HEADER;
FILE_DESCRIPTION (( 'STEP AP203' ),
    '1' );
FILE_NAME ('957804.step',
    '2021-10-08T08:12:19',
    ( '' ),
    ( '' ),
    'SwSTEP 2.0',
    'SolidWorks 2019',
    '' );
FILE_SCHEMA (( 'CONFIG_CONTROL_DESIGN' ));
ENDSEC;

DATA;
#1 = EDGE_CURVE ( 'NONE', #209, #209, #128, .T. ) ;
#2 = CIRCLE ( 'NONE', #168, 0.7500000000000000000 ) ;
#3 = PLANE ( 'NONE',  #14 ) ;
#4 = PRODUCT_DEFINITION ( 'UNKNOWN', '', #222, #206 ) ;
#5 = VERTEX_POINT ( 'NONE', #52 ) ;
#6 = APPROVAL_ROLE ( '' ) ;
#7 = CC_DESIGN_APPROVAL ( #195, ( #222 ) ) ;
#8 = CARTESIAN_POINT ( 'NONE',  ( 8.466392301576959852E-16, -2.969610668429768229E-17, 0.2424871130596451263 ) ) ;
#9 = DATE_AND_TIME ( #95, #106 ) ;
#10 = CARTESIAN_POINT ( 'NONE',  ( 1.047444401652940007E-13, -3.673940397442059178E-15, 30.00000000000000000 ) ) ;
#11 = PERSON_AND_ORGANIZATION_ROLE ( 'design_owner' ) ;
#12 = DIRECTION ( 'NONE',  ( -4.585547486636284182E-31, -1.000000000000000000, -1.290716872006555245E-16 ) ) ;
#13 = APPLICATION_PROTOCOL_DEFINITION ( 'international standard', 'config_control_design', 1994, #181 ) ;
#14 = AXIS2_PLACEMENT_3D ( 'NONE', #112, #125, #192 ) ;
#15 = ORIENTED_EDGE ( 'NONE', *, *, #127, .T. ) ;
#16 = ORIENTED_EDGE ( 'NONE', *, *, #135, .F. ) ;
#17 = MANIFOLD_SOLID_BREP ( 'Corps-Déplacer/Copier1[2]', #137 ) ;
#18 = MANIFOLD_SOLID_BREP ( 'Corps-Déplacer/Copier1[1]', #42 ) ;
#19 = AXIS2_PLACEMENT_3D ( 'NONE', #197, #44, #121 ) ;
#20 = FACE_OUTER_BOUND ( 'NONE', #84, .T. ) ;
#21 = APPROVAL_PERSON_ORGANIZATION ( #202, #195, #166 ) ;
#22 = ORIENTED_EDGE ( 'NONE', *, *, #212, .T. ) ;
#23 = CARTESIAN_POINT ( 'NONE',  ( 8.466392301576961824E-16, 0.4199999999999992073, 0.2424871130596451818 ) ) ;
#24 = AXIS2_PLACEMENT_3D ( 'NONE', #92, #34, #116 ) ;
#25 = COORDINATED_UNIVERSAL_TIME_OFFSET ( 1, 0, .AHEAD. ) ;
#26 = FACE_OUTER_BOUND ( 'NONE', #129, .T. ) ;
#27 = EDGE_LOOP ( 'NONE', ( #47 ) ) ;
#28 = ADVANCED_BREP_SHAPE_REPRESENTATION ( '957804', ( #18, #17, #24 ), #153 ) ;
#29 = ADVANCED_FACE ( 'NONE', ( #211 ), #218, .F. ) ;
#30 = FACE_OUTER_BOUND ( 'NONE', #196, .T. ) ;
#31 = EDGE_LOOP ( 'NONE', ( #70 ) ) ;
#32 = AXIS2_PLACEMENT_3D ( 'NONE', #10, #96, #126 ) ;
#33 = CC_DESIGN_DATE_AND_TIME_ASSIGNMENT ( #9, #144, ( #4 ) ) ;
#34 = DIRECTION ( 'NONE',  ( 0.0000000000000000000, 0.0000000000000000000, 1.000000000000000000 ) ) ;
#35 = PERSON_AND_ORGANIZATION ( #136, #69 ) ;
#36 = DIRECTION ( 'NONE',  ( -3.491481338843133355E-15, 1.224646799147353207E-16, -1.000000000000000000 ) ) ;
#37 = COORDINATED_UNIVERSAL_TIME_OFFSET ( 1, 0, .AHEAD. ) ;
#38 = PRODUCT_RELATED_PRODUCT_CATEGORY ( 'detail', '', ( #110 ) ) ;
#39 = PERSON_AND_ORGANIZATION ( #136, #69 ) ;
#40 = PERSON_AND_ORGANIZATION_ROLE ( 'classification_officer' ) ;
#41 = AXIS2_PLACEMENT_3D ( 'NONE', #162, #151, #220 ) ;
#42 = CLOSED_SHELL ( 'NONE', ( #29, #54, #204, #120, #138 ) ) ;
#43 = PERSON_AND_ORGANIZATION_ROLE ( 'design_supplier' ) ;
#44 = DIRECTION ( 'NONE',  ( -3.491481338843133355E-15, 1.224646799147353207E-16, -1.000000000000000000 ) ) ;
#45 = APPROVAL_PERSON_ORGANIZATION ( #71, #90, #150 ) ;
#46 = AXIS2_PLACEMENT_3D ( 'NONE', #62, #107, #82 ) ;
#47 = ORIENTED_EDGE ( 'NONE', *, *, #127, .F. ) ;
#48 = DIRECTION ( 'NONE',  ( 0.0000000000000000000, -1.000000000000000000, 0.0000000000000000000 ) ) ;
#49 = AXIS2_PLACEMENT_3D ( 'NONE', #99, #156, #191 ) ;
#50 = CYLINDRICAL_SURFACE ( 'NONE', #57, 0.4199999999999999289 ) ;
#51 = ORIENTED_EDGE ( 'NONE', *, *, #103, .T. ) ;
#52 = CARTESIAN_POINT ( 'NONE',  ( 1.047444401652940007E-13, 0.6499999999999962474, 30.00000000000000000 ) ) ;
#53 = APPROVAL_DATE_TIME ( #56, #90 ) ;
#54 = ADVANCED_FACE ( 'NONE', ( #215, #81 ), #160, .T. ) ;
#55 = ORIENTED_EDGE ( 'NONE', *, *, #135, .T. ) ;
#56 = DATE_AND_TIME ( #164, #214 ) ;
#57 = AXIS2_PLACEMENT_3D ( 'NONE', #115, #161, #180 ) ;
#58 = CARTESIAN_POINT ( 'NONE',  ( 1.043952920314096810E-13, -3.661693929450586610E-15, 29.89999999999999858 ) ) ;
#59 = CC_DESIGN_PERSON_AND_ORGANIZATION_ASSIGNMENT ( #61, #140, ( #222 ) ) ;
#60 = LOCAL_TIME ( 10, 12, 19.00000000000000000, #37 ) ;
#61 = PERSON_AND_ORGANIZATION ( #136, #69 ) ;
#62 = CARTESIAN_POINT ( 'NONE',  ( 2.199633243471174329E-14, -7.715274834628326364E-16, 6.300000000000000711 ) ) ;
#63 = COORDINATED_UNIVERSAL_TIME_OFFSET ( 1, 0, .AHEAD. ) ;
#64 = CC_DESIGN_APPROVAL ( #79, ( #118 ) ) ;
#65 = CARTESIAN_POINT ( 'NONE',  ( 1.047444401652940007E-13, -3.673940397442059178E-15, 30.00000000000000000 ) ) ;
#66 = APPLICATION_CONTEXT ( 'configuration controlled 3d designs of mechanical parts and assemblies' ) ;
#67 = FACE_OUTER_BOUND ( 'NONE', #146, .T. ) ;
#68 = VERTEX_POINT ( 'NONE', #177 ) ;
#69 = ORGANIZATION ( 'UNSPECIFIED', 'UNSPECIFIED', '' ) ;
#70 = ORIENTED_EDGE ( 'NONE', *, *, #221, .T. ) ;
#71 = PERSON_AND_ORGANIZATION ( #136, #69 ) ;
#72 = CYLINDRICAL_SURFACE ( 'NONE', #41, 0.7499999999999985567 ) ;
#73 = EDGE_LOOP ( 'NONE', ( #219 ) ) ;
#74 = CIRCLE ( 'NONE', #100, 0.4200000000000005396 ) ;
#75 = DIRECTION ( 'NONE',  ( 0.0000000000000000000, 1.000000000000000000, 0.0000000000000000000 ) ) ;
#76 = SHAPE_DEFINITION_REPRESENTATION ( #93, #28 ) ;
#77 = AXIS2_PLACEMENT_3D ( 'NONE', #193, #148, #113 ) ;
#78 = CARTESIAN_POINT ( 'NONE',  ( 2.199633243471174014E-14, 3.149495543589893860E-33, 6.299999999999999822 ) ) ;
#79 = APPROVAL ( #89, 'UNSPECIFIED' ) ;
#80 = CC_DESIGN_APPROVAL ( #90, ( #4 ) ) ;
#81 = FACE_OUTER_BOUND ( 'NONE', #133, .T. ) ;
#82 = DIRECTION ( 'NONE',  ( 0.0000000000000000000, 1.000000000000000000, 0.0000000000000000000 ) ) ;
#83 = DIRECTION ( 'NONE',  ( -3.491481338843133355E-15, 1.224646799147353207E-16, -1.000000000000000000 ) ) ;
#84 = EDGE_LOOP ( 'NONE', ( #101 ) ) ;
#85 = EDGE_LOOP ( 'NONE', ( #51 ) ) ;
#86 = EDGE_LOOP ( 'NONE', ( #16 ) ) ;
#87 = ADVANCED_FACE ( 'NONE', ( #26 ), #207, .T. ) ;
#88 = MECHANICAL_CONTEXT ( 'NONE', #66, 'mechanical' ) ;
#89 = APPROVAL_STATUS ( 'not_yet_approved' ) ;
#90 = APPROVAL ( #158, 'UNSPECIFIED' ) ;
#91 = AXIS2_PLACEMENT_3D ( 'NONE', #172, #208, #48 ) ;
#92 = CARTESIAN_POINT ( 'NONE',  ( 0.0000000000000000000, 0.0000000000000000000, 0.0000000000000000000 ) ) ;
#93 = PRODUCT_DEFINITION_SHAPE ( 'NONE', 'NONE',  #4 ) ;
#94 = CIRCLE ( 'NONE', #77, 0.4199999999999992628 ) ;
#95 = CALENDAR_DATE ( 2021, 8, 10 ) ;
#96 = DIRECTION ( 'NONE',  ( -3.491481338843133355E-15, 1.224646799147353207E-16, -1.000000000000000000 ) ) ;
#97 = VERTEX_POINT ( 'NONE', #23 ) ;
#98 = CC_DESIGN_PERSON_AND_ORGANIZATION_ASSIGNMENT ( #210, #11, ( #110 ) ) ;
#99 = CARTESIAN_POINT ( 'NONE',  ( 2.199633243471174014E-14, 3.149495543589893860E-33, 6.299999999999999822 ) ) ;
#100 = AXIS2_PLACEMENT_3D ( 'NONE', #205, #187, #194 ) ;
#101 = ORIENTED_EDGE ( 'NONE', *, *, #103, .F. ) ;
#102 = UNCERTAINTY_MEASURE_WITH_UNIT (LENGTH_MEASURE( 1.000000000000000082E-05 ), #124, 'distance_accuracy_value', 'NONE');
#103 = EDGE_CURVE ( 'NONE', #5, #5, #104, .T. ) ;
#104 = CIRCLE ( 'NONE', #179, 0.6500000000000000222 ) ;
#105 = APPROVAL_DATE_TIME ( #130, #195 ) ;
#106 = LOCAL_TIME ( 10, 12, 19.00000000000000000, #25 ) ;
#107 = DIRECTION ( 'NONE',  ( -3.491481338843133355E-15, 1.224646799147353207E-16, -1.000000000000000000 ) ) ;
#108 = DIRECTION ( 'NONE',  ( -4.275831445896958607E-31, -1.000000000000000000, -1.224646799147353207E-16 ) ) ;
#109 = CC_DESIGN_PERSON_AND_ORGANIZATION_ASSIGNMENT ( #35, #173, ( #4 ) ) ;
#110 = PRODUCT ( '957804', '957804', '', ( #88 ) ) ;
#111 = EDGE_LOOP ( 'NONE', ( #163 ) ) ;
#112 = CARTESIAN_POINT ( 'NONE',  ( 1.047444401652940007E-13, 4.874219293650981803E-33, 30.00000000000000000 ) ) ;
#113 = DIRECTION ( 'NONE',  ( 4.585547486636284182E-31, 1.000000000000000000, 1.290716872006555245E-16 ) ) ;
#114 = CARTESIAN_POINT ( 'NONE',  ( 2.199633243471174329E-14, 0.4199999999999998179, 6.300000000000000711 ) ) ;
#115 = CARTESIAN_POINT ( 'NONE',  ( 0.0000000000000000000, 0.0000000000000000000, 0.0000000000000000000 ) ) ;
#116 = DIRECTION ( 'NONE',  ( 1.000000000000000000, 0.0000000000000000000, 0.0000000000000000000 ) ) ;
#117 = AXIS2_PLACEMENT_3D ( 'NONE', #78, #139, #108 ) ;
#118 = SECURITY_CLASSIFICATION ( '', '', #201 ) ;
#119 = DATE_AND_TIME ( #203, #223 ) ;
#120 = ADVANCED_FACE ( 'NONE', ( #67, #123 ), #174, .T. ) ;
#121 = DIRECTION ( 'NONE',  ( 0.0000000000000000000, 1.000000000000000000, 0.0000000000000000000 ) ) ;
#122 = VERTEX_POINT ( 'NONE', #188 ) ;
#123 = FACE_BOUND ( 'NONE', #85, .T. ) ;
#124 =( LENGTH_UNIT ( ) NAMED_UNIT ( * ) SI_UNIT ( .MILLI., .METRE. ) );
#125 = DIRECTION ( 'NONE',  ( -3.491481338843133355E-15, 1.224646799147353207E-16, -1.000000000000000000 ) ) ;
#126 = DIRECTION ( 'NONE',  ( 0.0000000000000000000, 1.000000000000000000, 0.0000000000000000000 ) ) ;
#127 = EDGE_CURVE ( 'NONE', #97, #97, #94, .T. ) ;
#128 = CIRCLE ( 'NONE', #46, 0.4200000000000005396 ) ;
#129 = EDGE_LOOP ( 'NONE', ( #15 ) ) ;
#130 = DATE_AND_TIME ( #200, #60 ) ;
#131 = CC_DESIGN_PERSON_AND_ORGANIZATION_ASSIGNMENT ( #39, #43, ( #222 ) ) ;
#132 = ADVANCED_FACE ( 'NONE', ( #176 ), #169, .T. ) ;
#133 = EDGE_LOOP ( 'NONE', ( #55 ) ) ;
#134 = AXIS2_PLACEMENT_3D ( 'NONE', #8, #159, #12 ) ;
#135 = EDGE_CURVE ( 'NONE', #68, #68, #142, .T. ) ;
#136 = PERSON ( 'UNSPECIFIED', 'UNSPECIFIED', 'UNSPECIFIED', ('UNSPECIFIED'), ('UNSPECIFIED'), ('UNSPECIFIED') ) ;
#137 = CLOSED_SHELL ( 'NONE', ( #87, #145, #132 ) ) ;
#138 = ADVANCED_FACE ( 'NONE', ( #20 ), #3, .F. ) ;
#139 = DIRECTION ( 'NONE',  ( 3.491481338843133355E-15, -1.224646799147353207E-16, 1.000000000000000000 ) ) ;
#140 = PERSON_AND_ORGANIZATION_ROLE ( 'creator' ) ;
#141 =( NAMED_UNIT ( * ) PLANE_ANGLE_UNIT ( ) SI_UNIT ( $, .RADIAN. ) );
#142 = CIRCLE ( 'NONE', #19, 0.7499999999999972244 ) ;
#143 = APPROVAL_DATE_TIME ( #154, #79 ) ;
#144 = DATE_TIME_ROLE ( 'creation_date' ) ;
#145 = ADVANCED_FACE ( 'NONE', ( #175, #147 ), #50, .T. ) ;
#146 = EDGE_LOOP ( 'NONE', ( #213 ) ) ;
#147 = FACE_OUTER_BOUND ( 'NONE', #31, .T. ) ;
#148 = DIRECTION ( 'NONE',  ( -3.491481338843133355E-15, 1.224646799147353207E-16, -1.000000000000000000 ) ) ;
#149 = EDGE_LOOP ( 'NONE', ( #190 ) ) ;
#150 = APPROVAL_ROLE ( '' ) ;
#151 = DIRECTION ( 'NONE',  ( -3.491481338843133355E-15, 1.224646799147353207E-16, -1.000000000000000000 ) ) ;
#152 = LOCAL_TIME ( 10, 12, 19.00000000000000000, #186 ) ;
#153 =( GEOMETRIC_REPRESENTATION_CONTEXT ( 3 ) GLOBAL_UNCERTAINTY_ASSIGNED_CONTEXT ( ( #102 ) ) GLOBAL_UNIT_ASSIGNED_CONTEXT ( ( #124, #141, #185 ) ) REPRESENTATION_CONTEXT ( 'NONE', 'WORKASPACE' ) );
#154 = DATE_AND_TIME ( #189, #152 ) ;
#155 = APPLICATION_PROTOCOL_DEFINITION ( 'international standard', 'config_control_design', 1994, #66 ) ;
#156 = DIRECTION ( 'NONE',  ( 3.491481338843133355E-15, -1.224646799147353207E-16, 1.000000000000000000 ) ) ;
#157 = VERTEX_POINT ( 'NONE', #171 ) ;
#158 = APPROVAL_STATUS ( 'not_yet_approved' ) ;
#159 = DIRECTION ( 'NONE',  ( 3.491481338843133355E-15, -1.224646799147353207E-16, 1.000000000000000000 ) ) ;
#160 = CONICAL_SURFACE ( 'NONE', #91, 0.7499999999999972244, 0.5235987755982923764 ) ;
#161 = DIRECTION ( 'NONE',  ( -3.491481338843133355E-15, 1.224646799147353207E-16, -1.000000000000000000 ) ) ;
#162 = CARTESIAN_POINT ( 'NONE',  ( 0.0000000000000000000, 0.0000000000000000000, 0.0000000000000000000 ) ) ;
#163 = ORIENTED_EDGE ( 'NONE', *, *, #1, .F. ) ;
#164 = CALENDAR_DATE ( 2021, 8, 10 ) ;
#165 = FACE_OUTER_BOUND ( 'NONE', #86, .T. ) ;
#166 = APPROVAL_ROLE ( '' ) ;
#167 = CC_DESIGN_DATE_AND_TIME_ASSIGNMENT ( #119, #184, ( #118 ) ) ;
#168 = AXIS2_PLACEMENT_3D ( 'NONE', #58, #36, #75 ) ;
#169 = PLANE ( 'NONE',  #117 ) ;
#170 = CC_DESIGN_SECURITY_CLASSIFICATION ( #118, ( #222 ) ) ;
#171 = CARTESIAN_POINT ( 'NONE',  ( 1.043952920314096810E-13, 0.7499999999999963363, 29.89999999999999858 ) ) ;
#172 = CARTESIAN_POINT ( 'NONE',  ( 2.399198204865487406E-14, -8.415254492186768778E-16, 6.871576766497732969 ) ) ;
#173 = PERSON_AND_ORGANIZATION_ROLE ( 'creator' ) ;
#174 = CONICAL_SURFACE ( 'NONE', #32, 0.6500000000000000222, 0.7853981633974516097 ) ;
#175 = FACE_OUTER_BOUND ( 'NONE', #27, .T. ) ;
#176 = FACE_OUTER_BOUND ( 'NONE', #149, .T. ) ;
#177 = CARTESIAN_POINT ( 'NONE',  ( 2.399198204865487406E-14, 0.7499999999999963363, 6.871576766497732969 ) ) ;
#178 = APPROVAL_STATUS ( 'not_yet_approved' ) ;
#179 = AXIS2_PLACEMENT_3D ( 'NONE', #65, #83, #199 ) ;
#180 = DIRECTION ( 'NONE',  ( 4.275831445896957731E-31, 1.000000000000000000, 1.224646799147353207E-16 ) ) ;
#181 = APPLICATION_CONTEXT ( 'configuration controlled 3d designs of mechanical parts and assemblies' ) ;
#182 = PERSON_AND_ORGANIZATION ( #136, #69 ) ;
#183 = APPROVAL_PERSON_ORGANIZATION ( #216, #79, #6 ) ;
#184 = DATE_TIME_ROLE ( 'classification_date' ) ;
#185 =( NAMED_UNIT ( * ) SI_UNIT ( $, .STERADIAN. ) SOLID_ANGLE_UNIT ( ) );
#186 = COORDINATED_UNIVERSAL_TIME_OFFSET ( 1, 0, .AHEAD. ) ;
#187 = DIRECTION ( 'NONE',  ( -3.491481338843133355E-15, 1.224646799147353207E-16, -1.000000000000000000 ) ) ;
#188 = CARTESIAN_POINT ( 'NONE',  ( 2.199633243471174329E-14, 0.4199999999999998179, 6.300000000000000711 ) ) ;
#189 = CALENDAR_DATE ( 2021, 8, 10 ) ;
#190 = ORIENTED_EDGE ( 'NONE', *, *, #221, .F. ) ;
#191 = DIRECTION ( 'NONE',  ( -4.275831445896958607E-31, -1.000000000000000000, -1.224646799147353207E-16 ) ) ;
#192 = DIRECTION ( 'NONE',  ( 4.275831445896958607E-31, 1.000000000000000000, 1.224646799147353207E-16 ) ) ;
#193 = CARTESIAN_POINT ( 'NONE',  ( 8.466392301576959852E-16, -2.969610668429768229E-17, 0.2424871130596451263 ) ) ;
#194 = DIRECTION ( 'NONE',  ( 0.0000000000000000000, 1.000000000000000000, 0.0000000000000000000 ) ) ;
#195 = APPROVAL ( #178, 'UNSPECIFIED' ) ;
#196 = EDGE_LOOP ( 'NONE', ( #22 ) ) ;
#197 = CARTESIAN_POINT ( 'NONE',  ( 2.399198204865487406E-14, -8.415254492186768778E-16, 6.871576766497732969 ) ) ;
#198 = COORDINATED_UNIVERSAL_TIME_OFFSET ( 1, 0, .AHEAD. ) ;
#199 = DIRECTION ( 'NONE',  ( 0.0000000000000000000, 1.000000000000000000, 0.0000000000000000000 ) ) ;
#200 = CALENDAR_DATE ( 2021, 8, 10 ) ;
#201 = SECURITY_CLASSIFICATION_LEVEL ( 'unclassified' ) ;
#202 = PERSON_AND_ORGANIZATION ( #136, #69 ) ;
#203 = CALENDAR_DATE ( 2021, 8, 10 ) ;
#204 = ADVANCED_FACE ( 'NONE', ( #165, #30 ), #72, .T. ) ;
#205 = CARTESIAN_POINT ( 'NONE',  ( 2.199633243471174329E-14, -7.715274834628326364E-16, 6.300000000000000711 ) ) ;
#206 = DESIGN_CONTEXT ( 'detailed design', #181, 'design' ) ;
#207 = CONICAL_SURFACE ( 'NONE', #134, 0.4199999999999992628, 1.047197551196592746 ) ;
#208 = DIRECTION ( 'NONE',  ( 3.491481338843133355E-15, -1.224646799147353207E-16, 1.000000000000000000 ) ) ;
#209 = VERTEX_POINT ( 'NONE', #114 ) ;
#210 = PERSON_AND_ORGANIZATION ( #136, #69 ) ;
#211 = FACE_OUTER_BOUND ( 'NONE', #73, .T. ) ;
#212 = EDGE_CURVE ( 'NONE', #157, #157, #2, .T. ) ;
#213 = ORIENTED_EDGE ( 'NONE', *, *, #212, .F. ) ;
#214 = LOCAL_TIME ( 10, 12, 19.00000000000000000, #198 ) ;
#215 = FACE_BOUND ( 'NONE', #111, .T. ) ;
#216 = PERSON_AND_ORGANIZATION ( #136, #69 ) ;
#217 = CC_DESIGN_PERSON_AND_ORGANIZATION_ASSIGNMENT ( #182, #40, ( #118 ) ) ;
#218 = PLANE ( 'NONE',  #49 ) ;
#219 = ORIENTED_EDGE ( 'NONE', *, *, #1, .T. ) ;
#220 = DIRECTION ( 'NONE',  ( 4.275831445896959482E-31, 1.000000000000000000, 1.224646799147353454E-16 ) ) ;
#221 = EDGE_CURVE ( 'NONE', #122, #122, #74, .T. ) ;
#222 = PRODUCT_DEFINITION_FORMATION_WITH_SPECIFIED_SOURCE ( 'ANY', '', #110, .NOT_KNOWN. ) ;
#223 = LOCAL_TIME ( 10, 12, 19.00000000000000000, #63 ) ;
ENDSEC;
END-ISO-10303-21;
