ISO-10303-21;
HEADER;
FILE_DESCRIPTION (( 'STEP AP203' ),
    '1' );
FILE_NAME ('957802.step',
    '2021-10-08T08:12:16',
    ( '' ),
    ( '' ),
    'SwSTEP 2.0',
    'SolidWorks 2019',
    '' );
FILE_SCHEMA (( 'CONFIG_CONTROL_DESIGN' ));
ENDSEC;

DATA;
#1 = FACE_OUTER_BOUND ( 'NONE', #207, .T. ) ;
#2 = APPROVAL ( #3, 'UNSPECIFIED' ) ;
#3 = APPROVAL_STATUS ( 'not_yet_approved' ) ;
#4 = PERSON_AND_ORGANIZATION ( #15, #124 ) ;
#5 = VERTEX_POINT ( 'NONE', #63 ) ;
#6 = EDGE_LOOP ( 'NONE', ( #8 ) ) ;
#7 = CC_DESIGN_APPROVAL ( #90, ( #118 ) ) ;
#8 = ORIENTED_EDGE ( 'NONE', *, *, #143, .T. ) ;
#9 = FACE_OUTER_BOUND ( 'NONE', #86, .T. ) ;
#10 = FACE_OUTER_BOUND ( 'NONE', #127, .T. ) ;
#11 = CC_DESIGN_SECURITY_CLASSIFICATION ( #131, ( #100 ) ) ;
#12 = CARTESIAN_POINT ( 'NONE',  ( 2.199633243471174329E-14, -7.715274834628326364E-16, 6.300000000000000711 ) ) ;
#13 = FACE_BOUND ( 'NONE', #48, .T. ) ;
#14 = APPROVAL ( #211, 'UNSPECIFIED' ) ;
#15 = PERSON ( 'UNSPECIFIED', 'UNSPECIFIED', 'UNSPECIFIED', ('UNSPECIFIED'), ('UNSPECIFIED'), ('UNSPECIFIED') ) ;
#16 = ADVANCED_FACE ( 'NONE', ( #192, #140 ), #108, .T. ) ;
#17 = AXIS2_PLACEMENT_3D ( 'NONE', #56, #103, #139 ) ;
#18 = APPLICATION_PROTOCOL_DEFINITION ( 'international standard', 'config_control_design', 1994, #135 ) ;
#19 = ADVANCED_BREP_SHAPE_REPRESENTATION ( '957802', ( #30, #102, #151 ), #61 ) ;
#20 = CARTESIAN_POINT ( 'NONE',  ( 2.199633243471174014E-14, 3.112001549023342357E-33, 6.299999999999999822 ) ) ;
#21 = CC_DESIGN_PERSON_AND_ORGANIZATION_ASSIGNMENT ( #33, #37, ( #118 ) ) ;
#22 =( LENGTH_UNIT ( ) NAMED_UNIT ( * ) SI_UNIT ( .MILLI., .METRE. ) );
#23 = APPROVAL_ROLE ( '' ) ;
#24 = CARTESIAN_POINT ( 'NONE',  ( 1.047444401652940007E-13, -3.673940397442059178E-15, 30.00000000000000000 ) ) ;
#25 = DIRECTION ( 'NONE',  ( -3.491481338843133355E-15, 1.224646799147353207E-16, -1.000000000000000000 ) ) ;
#26 = DIRECTION ( 'NONE',  ( 0.0000000000000000000, -1.000000000000000000, 0.0000000000000000000 ) ) ;
#27 = PLANE ( 'NONE',  #74 ) ;
#28 = CIRCLE ( 'NONE', #60, 0.7500000000000000000 ) ;
#29 = CONICAL_SURFACE ( 'NONE', #117, 0.7499999999999972244, 0.5235987755982933756 ) ;
#30 = MANIFOLD_SOLID_BREP ( 'Corps-Déplacer/Copier1[1]', #182 ) ;
#31 = MECHANICAL_CONTEXT ( 'NONE', #141, 'mechanical' ) ;
#32 = EDGE_CURVE ( 'NONE', #210, #210, #115, .T. ) ;
#33 = PERSON_AND_ORGANIZATION ( #15, #124 ) ;
#34 = LOCAL_TIME ( 10, 12, 16.00000000000000000, #170 ) ;
#35 = ADVANCED_FACE ( 'NONE', ( #161, #96 ), #150, .T. ) ;
#36 = CIRCLE ( 'NONE', #17, 0.4149999999999989253 ) ;
#37 = PERSON_AND_ORGANIZATION_ROLE ( 'creator' ) ;
#38 = CALENDAR_DATE ( 2021, 8, 10 ) ;
#39 = EDGE_CURVE ( 'NONE', #157, #157, #28, .T. ) ;
#40 = LOCAL_TIME ( 10, 12, 16.00000000000000000, #41 ) ;
#41 = COORDINATED_UNIVERSAL_TIME_OFFSET ( 1, 0, .AHEAD. ) ;
#42 = CC_DESIGN_DATE_AND_TIME_ASSIGNMENT ( #208, #154, ( #118 ) ) ;
#43 = DIRECTION ( 'NONE',  ( -3.491481338843133355E-15, 1.224646799147353207E-16, -1.000000000000000000 ) ) ;
#44 = VERTEX_POINT ( 'NONE', #162 ) ;
#45 = ORIENTED_EDGE ( 'NONE', *, *, #156, .T. ) ;
#46 = ORIENTED_EDGE ( 'NONE', *, *, #32, .T. ) ;
#47 = AXIS2_PLACEMENT_3D ( 'NONE', #168, #73, #130 ) ;
#48 = EDGE_LOOP ( 'NONE', ( #122 ) ) ;
#49 = DIRECTION ( 'NONE',  ( -3.491481338843133355E-15, 1.224646799147353207E-16, -1.000000000000000000 ) ) ;
#50 = APPROVAL_PERSON_ORGANIZATION ( #105, #14, #121 ) ;
#51 = CARTESIAN_POINT ( 'NONE',  ( 0.0000000000000000000, 0.0000000000000000000, 0.0000000000000000000 ) ) ;
#52 = AXIS2_PLACEMENT_3D ( 'NONE', #173, #43, #144 ) ;
#53 = AXIS2_PLACEMENT_3D ( 'NONE', #12, #87, #89 ) ;
#54 = CC_DESIGN_PERSON_AND_ORGANIZATION_ASSIGNMENT ( #203, #77, ( #213 ) ) ;
#55 = CALENDAR_DATE ( 2021, 8, 10 ) ;
#56 = CARTESIAN_POINT ( 'NONE',  ( 8.365601917034373416E-16, -2.934258160472268604E-17, 0.2396003617136968633 ) ) ;
#57 = COORDINATED_UNIVERSAL_TIME_OFFSET ( 1, 0, .AHEAD. ) ;
#58 = CC_DESIGN_DATE_AND_TIME_ASSIGNMENT ( #106, #123, ( #131 ) ) ;
#59 = EDGE_CURVE ( 'NONE', #5, #5, #179, .T. ) ;
#60 = AXIS2_PLACEMENT_3D ( 'NONE', #197, #174, #109 ) ;
#61 =( GEOMETRIC_REPRESENTATION_CONTEXT ( 3 ) GLOBAL_UNCERTAINTY_ASSIGNED_CONTEXT ( ( #200 ) ) GLOBAL_UNIT_ASSIGNED_CONTEXT ( ( #22, #216, #195 ) ) REPRESENTATION_CONTEXT ( 'NONE', 'WORKASPACE' ) );
#62 = SECURITY_CLASSIFICATION_LEVEL ( 'unclassified' ) ;
#63 = CARTESIAN_POINT ( 'NONE',  ( 1.047444401652940007E-13, 0.6499999999999962474, 30.00000000000000000 ) ) ;
#64 = EDGE_LOOP ( 'NONE', ( #190 ) ) ;
#65 = PERSON_AND_ORGANIZATION ( #15, #124 ) ;
#66 = DIRECTION ( 'NONE',  ( 3.491481338843133355E-15, -1.224646799147353207E-16, 1.000000000000000000 ) ) ;
#67 = CIRCLE ( 'NONE', #171, 0.7499999999999972244 ) ;
#68 = DIRECTION ( 'NONE',  ( 3.491481338843133355E-15, -1.224646799147353207E-16, 1.000000000000000000 ) ) ;
#69 = ORIENTED_EDGE ( 'NONE', *, *, #39, .T. ) ;
#70 = EDGE_LOOP ( 'NONE', ( #147 ) ) ;
#71 = FACE_OUTER_BOUND ( 'NONE', #83, .T. ) ;
#72 = APPROVAL_PERSON_ORGANIZATION ( #187, #2, #23 ) ;
#73 = DIRECTION ( 'NONE',  ( 3.491481338843133355E-15, -1.224646799147353207E-16, 1.000000000000000000 ) ) ;
#74 = AXIS2_PLACEMENT_3D ( 'NONE', #99, #25, #165 ) ;
#75 = CC_DESIGN_APPROVAL ( #14, ( #131 ) ) ;
#76 = CC_DESIGN_PERSON_AND_ORGANIZATION_ASSIGNMENT ( #4, #137, ( #100 ) ) ;
#77 = PERSON_AND_ORGANIZATION_ROLE ( 'design_owner' ) ;
#78 = PERSON_AND_ORGANIZATION ( #15, #124 ) ;
#79 = CALENDAR_DATE ( 2021, 8, 10 ) ;
#80 = ADVANCED_FACE ( 'NONE', ( #176 ), #27, .F. ) ;
#81 = ADVANCED_FACE ( 'NONE', ( #10 ), #167, .F. ) ;
#82 = VERTEX_POINT ( 'NONE', #193 ) ;
#83 = EDGE_LOOP ( 'NONE', ( #126 ) ) ;
#84 = PLANE ( 'NONE',  #183 ) ;
#85 = DIRECTION ( 'NONE',  ( 0.0000000000000000000, 1.000000000000000000, 0.0000000000000000000 ) ) ;
#86 = EDGE_LOOP ( 'NONE', ( #194 ) ) ;
#87 = DIRECTION ( 'NONE',  ( -3.491481338843133355E-15, 1.224646799147353207E-16, -1.000000000000000000 ) ) ;
#88 = APPROVAL_DATE_TIME ( #164, #14 ) ;
#89 = DIRECTION ( 'NONE',  ( 0.0000000000000000000, 1.000000000000000000, 0.0000000000000000000 ) ) ;
#90 = APPROVAL ( #149, 'UNSPECIFIED' ) ;
#91 = DIRECTION ( 'NONE',  ( 0.0000000000000000000, 0.0000000000000000000, 1.000000000000000000 ) ) ;
#92 = COORDINATED_UNIVERSAL_TIME_OFFSET ( 1, 0, .AHEAD. ) ;
#93 = CARTESIAN_POINT ( 'NONE',  ( 2.402221916401764910E-14, -8.425860244574017248E-16, 6.880237020535577841 ) ) ;
#94 = CC_DESIGN_PERSON_AND_ORGANIZATION_ASSIGNMENT ( #78, #136, ( #131 ) ) ;
#95 = CARTESIAN_POINT ( 'NONE',  ( 2.199633243471174329E-14, 0.4149999999999991473, 6.300000000000000711 ) ) ;
#96 = FACE_BOUND ( 'NONE', #64, .T. ) ;
#97 = DIRECTION ( 'NONE',  ( -3.491481338843133355E-15, 1.224646799147353207E-16, -1.000000000000000000 ) ) ;
#98 = AXIS2_PLACEMENT_3D ( 'NONE', #212, #49, #85 ) ;
#99 = CARTESIAN_POINT ( 'NONE',  ( 1.047444401652940007E-13, 4.874219293650981803E-33, 30.00000000000000000 ) ) ;
#100 = PRODUCT_DEFINITION_FORMATION_WITH_SPECIFIED_SOURCE ( 'ANY', '', #213, .NOT_KNOWN. ) ;
#101 = PRODUCT_DEFINITION_SHAPE ( 'NONE', 'NONE',  #118 ) ;
#102 = MANIFOLD_SOLID_BREP ( 'Corps-Déplacer/Copier1[2]', #153 ) ;
#103 = DIRECTION ( 'NONE',  ( -3.491481338843133355E-15, 1.224646799147353207E-16, -1.000000000000000000 ) ) ;
#104 = DIRECTION ( 'NONE',  ( 1.000000000000000000, 0.0000000000000000000, 0.0000000000000000000 ) ) ;
#105 = PERSON_AND_ORGANIZATION ( #15, #124 ) ;
#106 = DATE_AND_TIME ( #206, #40 ) ;
#107 = ORIENTED_EDGE ( 'NONE', *, *, #143, .F. ) ;
#108 = CYLINDRICAL_SURFACE ( 'NONE', #188, 0.7499999999999985567 ) ;
#109 = DIRECTION ( 'NONE',  ( 0.0000000000000000000, 1.000000000000000000, 0.0000000000000000000 ) ) ;
#110 = DIRECTION ( 'NONE',  ( 0.0000000000000000000, 1.000000000000000000, 0.0000000000000000000 ) ) ;
#111 = SHAPE_DEFINITION_REPRESENTATION ( #101, #19 ) ;
#112 = ORIENTED_EDGE ( 'NONE', *, *, #220, .T. ) ;
#113 = LOCAL_TIME ( 10, 12, 16.00000000000000000, #57 ) ;
#114 = DESIGN_CONTEXT ( 'detailed design', #135, 'design' ) ;
#115 = CIRCLE ( 'NONE', #98, 0.4149999999999998690 ) ;
#116 = AXIS2_PLACEMENT_3D ( 'NONE', #24, #215, #110 ) ;
#117 = AXIS2_PLACEMENT_3D ( 'NONE', #93, #68, #26 ) ;
#118 = PRODUCT_DEFINITION ( 'UNKNOWN', '', #100, #114 ) ;
#119 = APPROVAL_DATE_TIME ( #184, #90 ) ;
#120 = CARTESIAN_POINT ( 'NONE',  ( 2.199633243471174014E-14, 3.112001549023342357E-33, 6.299999999999999822 ) ) ;
#121 = APPROVAL_ROLE ( '' ) ;
#122 = ORIENTED_EDGE ( 'NONE', *, *, #32, .F. ) ;
#123 = DATE_TIME_ROLE ( 'classification_date' ) ;
#124 = ORGANIZATION ( 'UNSPECIFIED', 'UNSPECIFIED', '' ) ;
#125 = CC_DESIGN_APPROVAL ( #2, ( #100 ) ) ;
#126 = ORIENTED_EDGE ( 'NONE', *, *, #220, .F. ) ;
#127 = EDGE_LOOP ( 'NONE', ( #46 ) ) ;
#128 = CYLINDRICAL_SURFACE ( 'NONE', #166, 0.4149999999999994249 ) ;
#129 = LOCAL_TIME ( 10, 12, 16.00000000000000000, #205 ) ;
#130 = DIRECTION ( 'NONE',  ( -4.640795046716242916E-31, -1.000000000000000000, -1.306267677693382198E-16 ) ) ;
#131 = SECURITY_CLASSIFICATION ( '', '', #62 ) ;
#132 = ADVANCED_FACE ( 'NONE', ( #13, #145 ), #29, .T. ) ;
#133 = ORIENTED_EDGE ( 'NONE', *, *, #39, .F. ) ;
#134 = APPROVAL_ROLE ( '' ) ;
#135 = APPLICATION_CONTEXT ( 'configuration controlled 3d designs of mechanical parts and assemblies' ) ;
#136 = PERSON_AND_ORGANIZATION_ROLE ( 'classification_officer' ) ;
#137 = PERSON_AND_ORGANIZATION_ROLE ( 'design_supplier' ) ;
#138 = EDGE_LOOP ( 'NONE', ( #69 ) ) ;
#139 = DIRECTION ( 'NONE',  ( 4.640795046716242916E-31, 1.000000000000000000, 1.306267677693382198E-16 ) ) ;
#140 = FACE_OUTER_BOUND ( 'NONE', #138, .T. ) ;
#141 = APPLICATION_CONTEXT ( 'configuration controlled 3d designs of mechanical parts and assemblies' ) ;
#142 = PERSON_AND_ORGANIZATION_ROLE ( 'creator' ) ;
#143 = EDGE_CURVE ( 'NONE', #82, #82, #67, .T. ) ;
#144 = DIRECTION ( 'NONE',  ( 0.0000000000000000000, 1.000000000000000000, 0.0000000000000000000 ) ) ;
#145 = FACE_OUTER_BOUND ( 'NONE', #6, .T. ) ;
#146 = EDGE_LOOP ( 'NONE', ( #133 ) ) ;
#147 = ORIENTED_EDGE ( 'NONE', *, *, #59, .F. ) ;
#148 = CC_DESIGN_PERSON_AND_ORGANIZATION_ASSIGNMENT ( #65, #142, ( #100 ) ) ;
#149 = APPROVAL_STATUS ( 'not_yet_approved' ) ;
#150 = CONICAL_SURFACE ( 'NONE', #52, 0.6500000000000000222, 0.7853981633974516097 ) ;
#151 = AXIS2_PLACEMENT_3D ( 'NONE', #169, #91, #104 ) ;
#152 = PRODUCT_RELATED_PRODUCT_CATEGORY ( 'detail', '', ( #213 ) ) ;
#153 = CLOSED_SHELL ( 'NONE', ( #201, #159, #221 ) ) ;
#154 = DATE_TIME_ROLE ( 'creation_date' ) ;
#155 = APPROVAL_DATE_TIME ( #160, #2 ) ;
#156 = EDGE_CURVE ( 'NONE', #175, #175, #186, .T. ) ;
#157 = VERTEX_POINT ( 'NONE', #218 ) ;
#158 = CARTESIAN_POINT ( 'NONE',  ( 2.402221916401764910E-14, -8.425860244574017248E-16, 6.880237020535577841 ) ) ;
#159 = ADVANCED_FACE ( 'NONE', ( #71, #1 ), #128, .T. ) ;
#160 = DATE_AND_TIME ( #38, #222 ) ;
#161 = FACE_OUTER_BOUND ( 'NONE', #146, .T. ) ;
#162 = CARTESIAN_POINT ( 'NONE',  ( 8.365601917034375388E-16, 0.4149999999999988698, 0.2396003617136969188 ) ) ;
#163 = DIRECTION ( 'NONE',  ( -4.275831445896958607E-31, -1.000000000000000000, -1.224646799147353207E-16 ) ) ;
#164 = DATE_AND_TIME ( #217, #34 ) ;
#165 = DIRECTION ( 'NONE',  ( 4.275831445896958607E-31, 1.000000000000000000, 1.224646799147353207E-16 ) ) ;
#166 = AXIS2_PLACEMENT_3D ( 'NONE', #51, #181, #223 ) ;
#167 = PLANE ( 'NONE',  #189 ) ;
#168 = CARTESIAN_POINT ( 'NONE',  ( 8.365601917034373416E-16, -2.934258160472268604E-17, 0.2396003617136968633 ) ) ;
#169 = CARTESIAN_POINT ( 'NONE',  ( 0.0000000000000000000, 0.0000000000000000000, 0.0000000000000000000 ) ) ;
#170 = COORDINATED_UNIVERSAL_TIME_OFFSET ( 1, 0, .AHEAD. ) ;
#171 = AXIS2_PLACEMENT_3D ( 'NONE', #158, #97, #178 ) ;
#172 = DIRECTION ( 'NONE',  ( 3.491481338843133355E-15, -1.224646799147353207E-16, 1.000000000000000000 ) ) ;
#173 = CARTESIAN_POINT ( 'NONE',  ( 1.047444401652940007E-13, -3.673940397442059178E-15, 30.00000000000000000 ) ) ;
#174 = DIRECTION ( 'NONE',  ( -3.491481338843133355E-15, 1.224646799147353207E-16, -1.000000000000000000 ) ) ;
#175 = VERTEX_POINT ( 'NONE', #95 ) ;
#176 = FACE_OUTER_BOUND ( 'NONE', #70, .T. ) ;
#177 = DIRECTION ( 'NONE',  ( -3.491481338843133355E-15, 1.224646799147353207E-16, -1.000000000000000000 ) ) ;
#178 = DIRECTION ( 'NONE',  ( 0.0000000000000000000, 1.000000000000000000, 0.0000000000000000000 ) ) ;
#179 = CIRCLE ( 'NONE', #116, 0.6500000000000000222 ) ;
#180 = APPLICATION_PROTOCOL_DEFINITION ( 'international standard', 'config_control_design', 1994, #141 ) ;
#181 = DIRECTION ( 'NONE',  ( -3.491481338843133355E-15, 1.224646799147353207E-16, -1.000000000000000000 ) ) ;
#182 = CLOSED_SHELL ( 'NONE', ( #81, #132, #16, #35, #80 ) ) ;
#183 = AXIS2_PLACEMENT_3D ( 'NONE', #120, #172, #198 ) ;
#184 = DATE_AND_TIME ( #55, #113 ) ;
#185 = PERSON_AND_ORGANIZATION ( #15, #124 ) ;
#186 = CIRCLE ( 'NONE', #53, 0.4149999999999998690 ) ;
#187 = PERSON_AND_ORGANIZATION ( #15, #124 ) ;
#188 = AXIS2_PLACEMENT_3D ( 'NONE', #196, #177, #199 ) ;
#189 = AXIS2_PLACEMENT_3D ( 'NONE', #20, #66, #163 ) ;
#190 = ORIENTED_EDGE ( 'NONE', *, *, #59, .T. ) ;
#191 = CONICAL_SURFACE ( 'NONE', #47, 0.4149999999999989253, 1.047197551196592746 ) ;
#192 = FACE_OUTER_BOUND ( 'NONE', #219, .T. ) ;
#193 = CARTESIAN_POINT ( 'NONE',  ( 2.402221916401764910E-14, 0.7499999999999963363, 6.880237020535577841 ) ) ;
#194 = ORIENTED_EDGE ( 'NONE', *, *, #156, .F. ) ;
#195 =( NAMED_UNIT ( * ) SI_UNIT ( $, .STERADIAN. ) SOLID_ANGLE_UNIT ( ) );
#196 = CARTESIAN_POINT ( 'NONE',  ( 0.0000000000000000000, 0.0000000000000000000, 0.0000000000000000000 ) ) ;
#197 = CARTESIAN_POINT ( 'NONE',  ( 1.043952920314096810E-13, -3.661693929450586610E-15, 29.89999999999999858 ) ) ;
#198 = DIRECTION ( 'NONE',  ( -4.275831445896958607E-31, -1.000000000000000000, -1.224646799147353207E-16 ) ) ;
#199 = DIRECTION ( 'NONE',  ( 4.275831445896959482E-31, 1.000000000000000000, 1.224646799147353454E-16 ) ) ;
#200 = UNCERTAINTY_MEASURE_WITH_UNIT (LENGTH_MEASURE( 1.000000000000000082E-05 ), #22, 'distance_accuracy_value', 'NONE');
#201 = ADVANCED_FACE ( 'NONE', ( #202 ), #191, .T. ) ;
#202 = FACE_OUTER_BOUND ( 'NONE', #204, .T. ) ;
#203 = PERSON_AND_ORGANIZATION ( #15, #124 ) ;
#204 = EDGE_LOOP ( 'NONE', ( #112 ) ) ;
#205 = COORDINATED_UNIVERSAL_TIME_OFFSET ( 1, 0, .AHEAD. ) ;
#206 = CALENDAR_DATE ( 2021, 8, 10 ) ;
#207 = EDGE_LOOP ( 'NONE', ( #45 ) ) ;
#208 = DATE_AND_TIME ( #79, #129 ) ;
#209 = APPROVAL_PERSON_ORGANIZATION ( #185, #90, #134 ) ;
#210 = VERTEX_POINT ( 'NONE', #214 ) ;
#211 = APPROVAL_STATUS ( 'not_yet_approved' ) ;
#212 = CARTESIAN_POINT ( 'NONE',  ( 2.199633243471174329E-14, -7.715274834628326364E-16, 6.300000000000000711 ) ) ;
#213 = PRODUCT ( '957802', '957802', '', ( #31 ) ) ;
#214 = CARTESIAN_POINT ( 'NONE',  ( 2.199633243471174329E-14, 0.4149999999999991473, 6.300000000000000711 ) ) ;
#215 = DIRECTION ( 'NONE',  ( -3.491481338843133355E-15, 1.224646799147353207E-16, -1.000000000000000000 ) ) ;
#216 =( NAMED_UNIT ( * ) PLANE_ANGLE_UNIT ( ) SI_UNIT ( $, .RADIAN. ) );
#217 = CALENDAR_DATE ( 2021, 8, 10 ) ;
#218 = CARTESIAN_POINT ( 'NONE',  ( 1.043952920314096810E-13, 0.7499999999999963363, 29.89999999999999858 ) ) ;
#219 = EDGE_LOOP ( 'NONE', ( #107 ) ) ;
#220 = EDGE_CURVE ( 'NONE', #44, #44, #36, .T. ) ;
#221 = ADVANCED_FACE ( 'NONE', ( #9 ), #84, .T. ) ;
#222 = LOCAL_TIME ( 10, 12, 16.00000000000000000, #92 ) ;
#223 = DIRECTION ( 'NONE',  ( 4.275831445896958607E-31, 1.000000000000000000, 1.224646799147352961E-16 ) ) ;
ENDSEC;
END-ISO-10303-21;
