ISO-10303-21;
HEADER;
FILE_DESCRIPTION (( 'STEP AP203' ),
    '1' );
FILE_NAME ('957595.step',
    '2024-07-12T09:23:06',
    ( '' ),
    ( '' ),
    'SwSTEP 2.0',
    'SolidWorks 2022',
    '' );
FILE_SCHEMA (( 'CONFIG_CONTROL_DESIGN' ));
ENDSEC;

DATA;
#1 = VERTEX_POINT ( 'NONE', #19 ) ;
#2 = AXIS2_PLACEMENT_3D ( 'NONE', #165, #6, #149 ) ;
#3 = CARTESIAN_POINT ( 'NONE',  ( 3.491481338843133355E-14, 2.249999999999998668, 10.00000000000000000 ) ) ;
#4 = EDGE_CURVE ( 'NONE', #1, #1, #188, .T. ) ;
#5 =( NAMED_UNIT ( * ) SI_UNIT ( $, .STERADIAN. ) SOLID_ANGLE_UNIT ( ) );
#6 = DIRECTION ( 'NONE',  ( -3.491481338843133355E-15, 1.224646799147353207E-16, -1.000000000000000000 ) ) ;
#7 = DIRECTION ( 'NONE',  ( 0.000000000000000000, 1.000000000000000000, 0.000000000000000000 ) ) ;
#8 = CC_DESIGN_APPROVAL ( #66, ( #179 ) ) ;
#9 = PERSON_AND_ORGANIZATION_ROLE ( 'creator' ) ;
#10 = APPROVAL ( #168, 'UNSPECIFIED' ) ;
#11 = DIRECTION ( 'NONE',  ( -3.491481338843133355E-15, 1.224646799147353207E-16, -1.000000000000000000 ) ) ;
#12 = SHAPE_DEFINITION_REPRESENTATION ( #237, #157 ) ;
#13 = APPROVAL_ROLE ( '' ) ;
#14 = MECHANICAL_CONTEXT ( 'NONE', #194, 'mechanical' ) ;
#15 = COORDINATED_UNIVERSAL_TIME_OFFSET ( 1, 0, .AHEAD. ) ;
#16 = CONICAL_SURFACE ( 'NONE', #154, 2.250000000000000000, 0.7853981633974437271 ) ;
#17 = ADVANCED_FACE ( 'NONE', ( #61 ), #137, .F. ) ;
#18 = EDGE_LOOP ( 'NONE', ( #110 ) ) ;
#19 = CARTESIAN_POINT ( 'NONE',  ( 3.753342439256369304E-14, 2.999999999999993783, 10.75000000000000178 ) ) ;
#20 = EDGE_CURVE ( 'NONE', #58, #58, #32, .T. ) ;
#21 = ORIENTED_EDGE ( 'NONE', *, *, #134, .T. ) ;
#22 = DATE_AND_TIME ( #111, #173 ) ;
#23 = COORDINATED_UNIVERSAL_TIME_OFFSET ( 1, 0, .AHEAD. ) ;
#24 = CARTESIAN_POINT ( 'NONE',  ( 1.745740669421566678E-13, -6.123233995736766085E-15, 50.00000000000000000 ) ) ;
#25 = CARTESIAN_POINT ( 'NONE',  ( 1.745740669421566678E-14, 1.687229755494588714E-32, 5.000000000000000000 ) ) ;
#26 = CARTESIAN_POINT ( 'NONE',  ( 1.728283262727351074E-13, -6.062001655779398511E-15, 49.50000000000000000 ) ) ;
#27 = PERSON_AND_ORGANIZATION ( #141, #183 ) ;
#28 = PLANE ( 'NONE',  #217 ) ;
#29 = FACE_OUTER_BOUND ( 'NONE', #92, .T. ) ;
#30 = DATE_TIME_ROLE ( 'classification_date' ) ;
#31 = CYLINDRICAL_SURFACE ( 'NONE', #44, 2.999999999999998224 ) ;
#32 = CIRCLE ( 'NONE', #233, 2.500000000000000888 ) ;
#33 = LOCAL_TIME ( 11, 23, 6.000000000000000000, #23 ) ;
#34 = CARTESIAN_POINT ( 'NONE',  ( 0.000000000000000000, 0.000000000000000000, 0.000000000000000000 ) ) ;
#35 = CC_DESIGN_PERSON_AND_ORGANIZATION_ASSIGNMENT ( #60, #38, ( #71 ) ) ;
#36 =( NAMED_UNIT ( * ) PLANE_ANGLE_UNIT ( ) SI_UNIT ( $, .RADIAN. ) );
#37 = EDGE_LOOP ( 'NONE', ( #182 ) ) ;
#38 = PERSON_AND_ORGANIZATION_ROLE ( 'design_supplier' ) ;
#39 = CC_DESIGN_APPROVAL ( #81, ( #114 ) ) ;
#40 = DIRECTION ( 'NONE',  ( -3.491481338843133355E-15, 1.224646799147353207E-16, -1.000000000000000000 ) ) ;
#41 = PERSON_AND_ORGANIZATION_ROLE ( 'creator' ) ;
#42 = PERSON_AND_ORGANIZATION ( #141, #183 ) ;
#43 = PRODUCT_RELATED_PRODUCT_CATEGORY ( 'detail', '', ( #112 ) ) ;
#44 = AXIS2_PLACEMENT_3D ( 'NONE', #70, #178, #47 ) ;
#45 = ADVANCED_FACE ( 'NONE', ( #214, #79 ), #151, .T. ) ;
#46 = AXIS2_PLACEMENT_3D ( 'NONE', #25, #189, #67 ) ;
#47 = DIRECTION ( 'NONE',  ( 4.275831445896958607E-31, 1.000000000000000000, 1.224646799147353454E-16 ) ) ;
#48 = DIRECTION ( 'NONE',  ( 1.000000000000000000, 0.000000000000000000, 0.000000000000000000 ) ) ;
#49 = PERSON_AND_ORGANIZATION ( #141, #183 ) ;
#50 =( GEOMETRIC_REPRESENTATION_CONTEXT ( 3 ) GLOBAL_UNCERTAINTY_ASSIGNED_CONTEXT ( ( #53 ) ) GLOBAL_UNIT_ASSIGNED_CONTEXT ( ( #76, #36, #5 ) ) REPRESENTATION_CONTEXT ( 'NONE', 'WORKASPACE' ) );
#51 = CARTESIAN_POINT ( 'NONE',  ( 1.745740669421566678E-14, 1.874699728327321462E-32, 5.000000000000000000 ) ) ;
#52 = DIRECTION ( 'NONE',  ( 4.275831445896958607E-31, 1.000000000000000000, 1.224646799147353207E-16 ) ) ;
#53 = UNCERTAINTY_MEASURE_WITH_UNIT (LENGTH_MEASURE( 1.000000000000000082E-05 ), #76, 'distance_accuracy_value', 'NONE');
#54 = ORIENTED_EDGE ( 'NONE', *, *, #4, .T. ) ;
#55 = ADVANCED_FACE ( 'NONE', ( #139 ), #153, .T. ) ;
#56 = VERTEX_POINT ( 'NONE', #132 ) ;
#57 = EDGE_LOOP ( 'NONE', ( #147 ) ) ;
#58 = VERTEX_POINT ( 'NONE', #73 ) ;
#59 = EDGE_LOOP ( 'NONE', ( #206 ) ) ;
#60 = PERSON_AND_ORGANIZATION ( #141, #183 ) ;
#61 = FACE_OUTER_BOUND ( 'NONE', #181, .T. ) ;
#62 = DIRECTION ( 'NONE',  ( 0.000000000000000000, 1.000000000000000000, 0.000000000000000000 ) ) ;
#63 = DIRECTION ( 'NONE',  ( -3.491481338843133355E-15, 1.224646799147353207E-16, -1.000000000000000000 ) ) ;
#64 = CALENDAR_DATE ( 2024, 12, 7 ) ;
#65 = AXIS2_PLACEMENT_3D ( 'NONE', #198, #242, #239 ) ;
#66 = APPROVAL ( #103, 'UNSPECIFIED' ) ;
#67 = DIRECTION ( 'NONE',  ( -4.275831445896958607E-31, -1.000000000000000000, -1.224646799147353207E-16 ) ) ;
#68 = CLOSED_SHELL ( 'NONE', ( #130, #199, #78, #138, #162, #17 ) ) ;
#69 = DIRECTION ( 'NONE',  ( -3.491481338843133355E-15, 1.224646799147353207E-16, -1.000000000000000000 ) ) ;
#70 = CARTESIAN_POINT ( 'NONE',  ( 0.000000000000000000, 0.000000000000000000, 0.000000000000000000 ) ) ;
#71 = PRODUCT_DEFINITION_FORMATION_WITH_SPECIFIED_SOURCE ( 'ANY', '', #112, .NOT_KNOWN. ) ;
#72 = CARTESIAN_POINT ( 'NONE',  ( 1.745740669421566678E-14, 2.249999999999999112, 5.000000000000000000 ) ) ;
#73 = CARTESIAN_POINT ( 'NONE',  ( 1.745740669421566678E-13, 2.499999999999994671, 50.00000000000000000 ) ) ;
#74 = CONICAL_SURFACE ( 'NONE', #65, 2.500000000000000888, 0.7853981633974479459 ) ;
#75 = EDGE_LOOP ( 'NONE', ( #117 ) ) ;
#76 =( LENGTH_UNIT ( ) NAMED_UNIT ( * ) SI_UNIT ( .MILLI., .METRE. ) );
#77 = ORIENTED_EDGE ( 'NONE', *, *, #240, .T. ) ;
#78 = ADVANCED_FACE ( 'NONE', ( #109, #164 ), #16, .T. ) ;
#79 = FACE_OUTER_BOUND ( 'NONE', #95, .T. ) ;
#80 = CIRCLE ( 'NONE', #175, 2.500000000000000000 ) ;
#81 = APPROVAL ( #221, 'UNSPECIFIED' ) ;
#82 = AXIS2_PLACEMENT_3D ( 'NONE', #156, #88, #48 ) ;
#83 = DIRECTION ( 'NONE',  ( 0.000000000000000000, 1.000000000000000000, 0.000000000000000000 ) ) ;
#84 = CC_DESIGN_PERSON_AND_ORGANIZATION_ASSIGNMENT ( #27, #222, ( #112 ) ) ;
#85 = COORDINATED_UNIVERSAL_TIME_OFFSET ( 1, 0, .AHEAD. ) ;
#86 = FACE_OUTER_BOUND ( 'NONE', #37, .T. ) ;
#87 = EDGE_CURVE ( 'NONE', #201, #201, #150, .T. ) ;
#88 = DIRECTION ( 'NONE',  ( 0.000000000000000000, 0.000000000000000000, 1.000000000000000000 ) ) ;
#89 = COORDINATED_UNIVERSAL_TIME_OFFSET ( 1, 0, .AHEAD. ) ;
#90 = CC_DESIGN_SECURITY_CLASSIFICATION ( #179, ( #71 ) ) ;
#91 = CARTESIAN_POINT ( 'NONE',  ( 1.728283262727351074E-13, 2.999999999999994671, 49.50000000000000000 ) ) ;
#92 = EDGE_LOOP ( 'NONE', ( #99 ) ) ;
#93 = EDGE_LOOP ( 'NONE', ( #77 ) ) ;
#94 = VERTEX_POINT ( 'NONE', #72 ) ;
#95 = EDGE_LOOP ( 'NONE', ( #228 ) ) ;
#96 = PERSON_AND_ORGANIZATION ( #141, #183 ) ;
#97 = EDGE_LOOP ( 'NONE', ( #163 ) ) ;
#98 = CC_DESIGN_PERSON_AND_ORGANIZATION_ASSIGNMENT ( #186, #41, ( #114 ) ) ;
#99 = ORIENTED_EDGE ( 'NONE', *, *, #169, .F. ) ;
#100 = DIRECTION ( 'NONE',  ( -3.491481338843133355E-15, 1.224646799147353207E-16, -1.000000000000000000 ) ) ;
#101 = COORDINATED_UNIVERSAL_TIME_OFFSET ( 1, 0, .AHEAD. ) ;
#102 = DIRECTION ( 'NONE',  ( -3.491481338843133355E-15, 1.224646799147353207E-16, -1.000000000000000000 ) ) ;
#103 = APPROVAL_STATUS ( 'not_yet_approved' ) ;
#104 = APPROVAL_PERSON_ORGANIZATION ( #96, #10, #172 ) ;
#105 = DIRECTION ( 'NONE',  ( 3.491481338843133355E-15, -1.224646799147353207E-16, 1.000000000000000000 ) ) ;
#106 = PERSON_AND_ORGANIZATION ( #141, #183 ) ;
#107 = CIRCLE ( 'NONE', #140, 2.500000000000000000 ) ;
#108 = CARTESIAN_POINT ( 'NONE',  ( 1.745740669421566678E-14, 2.499999999999999556, 5.000000000000000000 ) ) ;
#109 = FACE_OUTER_BOUND ( 'NONE', #230, .T. ) ;
#110 = ORIENTED_EDGE ( 'NONE', *, *, #126, .F. ) ;
#111 = CALENDAR_DATE ( 2024, 12, 7 ) ;
#112 = PRODUCT ( '957595', '957595', '', ( #14 ) ) ;
#113 = LOCAL_TIME ( 11, 23, 6.000000000000000000, #85 ) ;
#114 = PRODUCT_DEFINITION ( 'UNKNOWN', '', #71, #158 ) ;
#115 = EDGE_LOOP ( 'NONE', ( #232 ) ) ;
#116 = PERSON_AND_ORGANIZATION ( #141, #183 ) ;
#117 = ORIENTED_EDGE ( 'NONE', *, *, #4, .F. ) ;
#118 = DATE_TIME_ROLE ( 'creation_date' ) ;
#119 = DIRECTION ( 'NONE',  ( -3.491481338843133355E-15, 1.224646799147353207E-16, -1.000000000000000000 ) ) ;
#120 = DIRECTION ( 'NONE',  ( 3.491481338843133355E-15, -1.224646799147353207E-16, 1.000000000000000000 ) ) ;
#121 = AXIS2_PLACEMENT_3D ( 'NONE', #213, #11, #62 ) ;
#122 = DIRECTION ( 'NONE',  ( 4.275831445896958607E-31, 1.000000000000000000, 1.224646799147353207E-16 ) ) ;
#123 = CALENDAR_DATE ( 2024, 12, 7 ) ;
#124 = CLOSED_SHELL ( 'NONE', ( #55, #45, #192 ) ) ;
#125 = FACE_OUTER_BOUND ( 'NONE', #131, .T. ) ;
#126 = EDGE_CURVE ( 'NONE', #94, #94, #236, .T. ) ;
#127 = FACE_OUTER_BOUND ( 'NONE', #207, .T. ) ;
#128 = FACE_OUTER_BOUND ( 'NONE', #75, .T. ) ;
#129 = SECURITY_CLASSIFICATION_LEVEL ( 'unclassified' ) ;
#130 = ADVANCED_FACE ( 'NONE', ( #187 ), #235, .F. ) ;
#131 = EDGE_LOOP ( 'NONE', ( #205 ) ) ;
#132 = CARTESIAN_POINT ( 'NONE',  ( 0.000000000000000000, 2.500000000000000000, 0.000000000000000000 ) ) ;
#133 = ORIENTED_EDGE ( 'NONE', *, *, #20, .F. ) ;
#134 = EDGE_CURVE ( 'NONE', #227, #227, #146, .T. ) ;
#135 = CC_DESIGN_APPROVAL ( #10, ( #71 ) ) ;
#136 = LOCAL_TIME ( 11, 23, 6.000000000000000000, #89 ) ;
#137 = PLANE ( 'NONE',  #202 ) ;
#138 = ADVANCED_FACE ( 'NONE', ( #128, #127 ), #31, .T. ) ;
#139 = FACE_OUTER_BOUND ( 'NONE', #93, .T. ) ;
#140 = AXIS2_PLACEMENT_3D ( 'NONE', #225, #180, #52 ) ;
#141 = PERSON ( 'UNSPECIFIED', 'UNSPECIFIED', 'UNSPECIFIED', ('UNSPECIFIED'), ('UNSPECIFIED'), ('UNSPECIFIED') ) ;
#142 = CARTESIAN_POINT ( 'NONE',  ( 1.745740669421566678E-14, -6.123233995736766282E-16, 5.000000000000000000 ) ) ;
#143 = AXIS2_PLACEMENT_3D ( 'NONE', #26, #100, #83 ) ;
#144 = CYLINDRICAL_SURFACE ( 'NONE', #170, 2.249999999999999556 ) ;
#145 = CC_DESIGN_PERSON_AND_ORGANIZATION_ASSIGNMENT ( #116, #184, ( #179 ) ) ;
#146 = CIRCLE ( 'NONE', #143, 3.000000000000000888 ) ;
#147 = ORIENTED_EDGE ( 'NONE', *, *, #87, .F. ) ;
#148 = DATE_AND_TIME ( #64, #136 ) ;
#149 = DIRECTION ( 'NONE',  ( 0.000000000000000000, 1.000000000000000000, 0.000000000000000000 ) ) ;
#150 = CIRCLE ( 'NONE', #121, 2.250000000000000000 ) ;
#151 = CYLINDRICAL_SURFACE ( 'NONE', #159, 2.500000000000000000 ) ;
#152 = DIRECTION ( 'NONE',  ( 0.000000000000000000, -1.000000000000000000, 0.000000000000000000 ) ) ;
#153 = PLANE ( 'NONE',  #195 ) ;
#154 = AXIS2_PLACEMENT_3D ( 'NONE', #210, #120, #152 ) ;
#155 = DIRECTION ( 'NONE',  ( 0.000000000000000000, 1.000000000000000000, 0.000000000000000000 ) ) ;
#156 = CARTESIAN_POINT ( 'NONE',  ( 0.000000000000000000, 0.000000000000000000, 0.000000000000000000 ) ) ;
#157 = ADVANCED_BREP_SHAPE_REPRESENTATION ( '957595', ( #191, #196, #82 ), #50 ) ;
#158 = DESIGN_CONTEXT ( 'detailed design', #229, 'design' ) ;
#159 = AXIS2_PLACEMENT_3D ( 'NONE', #234, #63, #122 ) ;
#160 = APPROVAL_DATE_TIME ( #215, #81 ) ;
#161 = CC_DESIGN_DATE_AND_TIME_ASSIGNMENT ( #200, #30, ( #179 ) ) ;
#162 = ADVANCED_FACE ( 'NONE', ( #125, #224 ), #74, .T. ) ;
#163 = ORIENTED_EDGE ( 'NONE', *, *, #126, .T. ) ;
#164 = FACE_BOUND ( 'NONE', #57, .T. ) ;
#165 = CARTESIAN_POINT ( 'NONE',  ( 3.753342439256369304E-14, -1.316495309083405012E-15, 10.75000000000000178 ) ) ;
#166 = CALENDAR_DATE ( 2024, 12, 7 ) ;
#167 = DIRECTION ( 'NONE',  ( -3.491481338843133355E-15, 1.224646799147353207E-16, -1.000000000000000000 ) ) ;
#168 = APPROVAL_STATUS ( 'not_yet_approved' ) ;
#169 = EDGE_CURVE ( 'NONE', #204, #204, #80, .T. ) ;
#170 = AXIS2_PLACEMENT_3D ( 'NONE', #34, #209, #226 ) ;
#171 = APPROVAL_PERSON_ORGANIZATION ( #106, #66, #190 ) ;
#172 = APPROVAL_ROLE ( '' ) ;
#173 = LOCAL_TIME ( 11, 23, 6.000000000000000000, #15 ) ;
#174 = DATE_AND_TIME ( #123, #203 ) ;
#175 = AXIS2_PLACEMENT_3D ( 'NONE', #142, #69, #197 ) ;
#176 = DIRECTION ( 'NONE',  ( -4.275831445896958607E-31, -1.000000000000000000, -1.224646799147353207E-16 ) ) ;
#177 = CALENDAR_DATE ( 2024, 12, 7 ) ;
#178 = DIRECTION ( 'NONE',  ( -3.491481338843133355E-15, 1.224646799147353207E-16, -1.000000000000000000 ) ) ;
#179 = SECURITY_CLASSIFICATION ( '', '', #129 ) ;
#180 = DIRECTION ( 'NONE',  ( -3.491481338843133355E-15, 1.224646799147353207E-16, -1.000000000000000000 ) ) ;
#181 = EDGE_LOOP ( 'NONE', ( #133 ) ) ;
#182 = ORIENTED_EDGE ( 'NONE', *, *, #87, .T. ) ;
#183 = ORGANIZATION ( 'UNSPECIFIED', 'UNSPECIFIED', '' ) ;
#184 = PERSON_AND_ORGANIZATION_ROLE ( 'classification_officer' ) ;
#185 = DIRECTION ( 'NONE',  ( 4.275831445896958607E-31, 1.000000000000000000, 1.224646799147353207E-16 ) ) ;
#186 = PERSON_AND_ORGANIZATION ( #141, #183 ) ;
#187 = FACE_OUTER_BOUND ( 'NONE', #97, .T. ) ;
#188 = CIRCLE ( 'NONE', #2, 2.999999999999995115 ) ;
#189 = DIRECTION ( 'NONE',  ( 3.491481338843133355E-15, -1.224646799147353207E-16, 1.000000000000000000 ) ) ;
#190 = APPROVAL_ROLE ( '' ) ;
#191 = MANIFOLD_SOLID_BREP ( 'Corps-Déplacer/Copier1[1]', #68 ) ;
#192 = ADVANCED_FACE ( 'NONE', ( #29 ), #28, .T. ) ;
#193 = APPLICATION_PROTOCOL_DEFINITION ( 'international standard', 'config_control_design', 1994, #194 ) ;
#194 = APPLICATION_CONTEXT ( 'configuration controlled 3d designs of mechanical parts and assemblies' ) ;
#195 = AXIS2_PLACEMENT_3D ( 'NONE', #238, #102, #243 ) ;
#196 = MANIFOLD_SOLID_BREP ( 'Corps-Déplacer/Copier1[2]', #124 ) ;
#197 = DIRECTION ( 'NONE',  ( 0.000000000000000000, 1.000000000000000000, 0.000000000000000000 ) ) ;
#198 = CARTESIAN_POINT ( 'NONE',  ( 1.745740669421566678E-13, -6.123233995736766085E-15, 50.00000000000000000 ) ) ;
#199 = ADVANCED_FACE ( 'NONE', ( #86, #241 ), #144, .T. ) ;
#200 = DATE_AND_TIME ( #166, #33 ) ;
#201 = VERTEX_POINT ( 'NONE', #3 ) ;
#202 = AXIS2_PLACEMENT_3D ( 'NONE', #212, #40, #185 ) ;
#203 = LOCAL_TIME ( 11, 23, 6.000000000000000000, #101 ) ;
#204 = VERTEX_POINT ( 'NONE', #108 ) ;
#205 = ORIENTED_EDGE ( 'NONE', *, *, #134, .F. ) ;
#206 = ORIENTED_EDGE ( 'NONE', *, *, #169, .T. ) ;
#207 = EDGE_LOOP ( 'NONE', ( #21 ) ) ;
#208 = AXIS2_PLACEMENT_3D ( 'NONE', #218, #119, #155 ) ;
#209 = DIRECTION ( 'NONE',  ( -3.491481338843133355E-15, 1.224646799147353207E-16, -1.000000000000000000 ) ) ;
#210 = CARTESIAN_POINT ( 'NONE',  ( 3.491481338843133355E-14, -1.224646799147353256E-15, 10.00000000000000000 ) ) ;
#211 = CC_DESIGN_PERSON_AND_ORGANIZATION_ASSIGNMENT ( #42, #9, ( #71 ) ) ;
#212 = CARTESIAN_POINT ( 'NONE',  ( 1.745740669421566678E-13, 1.874699728327313799E-32, 50.00000000000000000 ) ) ;
#213 = CARTESIAN_POINT ( 'NONE',  ( 3.491481338843133355E-14, -1.224646799147353256E-15, 10.00000000000000000 ) ) ;
#214 = FACE_OUTER_BOUND ( 'NONE', #59, .T. ) ;
#215 = DATE_AND_TIME ( #177, #113 ) ;
#216 = APPROVAL_DATE_TIME ( #174, #66 ) ;
#217 = AXIS2_PLACEMENT_3D ( 'NONE', #51, #105, #176 ) ;
#218 = CARTESIAN_POINT ( 'NONE',  ( 1.745740669421566678E-14, -6.123233995736766282E-16, 5.000000000000000000 ) ) ;
#219 = APPLICATION_PROTOCOL_DEFINITION ( 'international standard', 'config_control_design', 1994, #229 ) ;
#220 = CC_DESIGN_DATE_AND_TIME_ASSIGNMENT ( #22, #118, ( #114 ) ) ;
#221 = APPROVAL_STATUS ( 'not_yet_approved' ) ;
#222 = PERSON_AND_ORGANIZATION_ROLE ( 'design_owner' ) ;
#223 = APPROVAL_PERSON_ORGANIZATION ( #49, #81, #13 ) ;
#224 = FACE_BOUND ( 'NONE', #115, .T. ) ;
#225 = CARTESIAN_POINT ( 'NONE',  ( -1.068957861474239564E-30, 3.749399456654644020E-32, -3.061616997868383141E-16 ) ) ;
#226 = DIRECTION ( 'NONE',  ( 4.275831445896958607E-31, 1.000000000000000000, 1.224646799147352961E-16 ) ) ;
#227 = VERTEX_POINT ( 'NONE', #91 ) ;
#228 = ORIENTED_EDGE ( 'NONE', *, *, #240, .F. ) ;
#229 = APPLICATION_CONTEXT ( 'configuration controlled 3d designs of mechanical parts and assemblies' ) ;
#230 = EDGE_LOOP ( 'NONE', ( #54 ) ) ;
#231 = APPROVAL_DATE_TIME ( #148, #10 ) ;
#232 = ORIENTED_EDGE ( 'NONE', *, *, #20, .T. ) ;
#233 = AXIS2_PLACEMENT_3D ( 'NONE', #24, #167, #7 ) ;
#234 = CARTESIAN_POINT ( 'NONE',  ( 0.000000000000000000, 0.000000000000000000, 0.000000000000000000 ) ) ;
#235 = PLANE ( 'NONE',  #46 ) ;
#236 = CIRCLE ( 'NONE', #208, 2.249999999999999556 ) ;
#237 = PRODUCT_DEFINITION_SHAPE ( 'NONE', 'NONE',  #114 ) ;
#238 = CARTESIAN_POINT ( 'NONE',  ( -5.344789307371197820E-31, 1.874699728327322010E-32, -1.530808498934191571E-16 ) ) ;
#239 = DIRECTION ( 'NONE',  ( 0.000000000000000000, 1.000000000000000000, 0.000000000000000000 ) ) ;
#240 = EDGE_CURVE ( 'NONE', #56, #56, #107, .T. ) ;
#241 = FACE_OUTER_BOUND ( 'NONE', #18, .T. ) ;
#242 = DIRECTION ( 'NONE',  ( -3.491481338843133355E-15, 1.224646799147353207E-16, -1.000000000000000000 ) ) ;
#243 = DIRECTION ( 'NONE',  ( 4.275831445896958607E-31, 1.000000000000000000, 1.224646799147353207E-16 ) ) ;
ENDSEC;
END-ISO-10303-21;
