ISO-10303-21;
HEADER;
FILE_DESCRIPTION (( 'STEP AP203' ),
    '1' );
FILE_NAME ('957593.step',
    '2024-07-12T09:23:05',
    ( '' ),
    ( '' ),
    'SwSTEP 2.0',
    'SolidWorks 2022',
    '' );
FILE_SCHEMA (( 'CONFIG_CONTROL_DESIGN' ));
ENDSEC;

DATA;
#1 = EDGE_CURVE ( 'NONE', #78, #78, #203, .T. ) ;
#2 = AXIS2_PLACEMENT_3D ( 'NONE', #138, #243, #72 ) ;
#3 = FACE_OUTER_BOUND ( 'NONE', #59, .T. ) ;
#4 = DIRECTION ( 'NONE',  ( -3.491481338843133355E-15, 1.224646799147353207E-16, -1.000000000000000000 ) ) ;
#5 = APPROVAL_PERSON_ORGANIZATION ( #196, #204, #101 ) ;
#6 = VERTEX_POINT ( 'NONE', #7 ) ;
#7 = CARTESIAN_POINT ( 'NONE',  ( 3.212162831735685211E-14, 2.999999999999993783, 9.200000000000008171 ) ) ;
#8 = ADVANCED_FACE ( 'NONE', ( #85, #236 ), #125, .T. ) ;
#9 = EDGE_LOOP ( 'NONE', ( #195 ) ) ;
#10 = EDGE_LOOP ( 'NONE', ( #136 ) ) ;
#11 = AXIS2_PLACEMENT_3D ( 'NONE', #51, #120, #157 ) ;
#12 = DATE_AND_TIME ( #241, #111 ) ;
#13 = EDGE_LOOP ( 'NONE', ( #115 ) ) ;
#14 = PERSON_AND_ORGANIZATION ( #231, #185 ) ;
#15 = DIRECTION ( 'NONE',  ( -3.491481338843133355E-15, 1.224646799147353207E-16, -1.000000000000000000 ) ) ;
#16 = COORDINATED_UNIVERSAL_TIME_OFFSET ( 1, 0, .AHEAD. ) ;
#17 = SECURITY_CLASSIFICATION ( '', '', #235 ) ;
#18 = FACE_OUTER_BOUND ( 'NONE', #13, .T. ) ;
#19 = ORIENTED_EDGE ( 'NONE', *, *, #1, .T. ) ;
#20 = CARTESIAN_POINT ( 'NONE',  ( 2.793185071074506684E-14, -9.797174393178825657E-16, 8.000000000000000000 ) ) ;
#21 = AXIS2_PLACEMENT_3D ( 'NONE', #230, #54, #75 ) ;
#22 = FACE_OUTER_BOUND ( 'NONE', #62, .T. ) ;
#23 = CARTESIAN_POINT ( 'NONE',  ( 1.710569414459005214E-46, 2.000000000000000000, 0.000000000000000000 ) ) ;
#24 = AXIS2_PLACEMENT_3D ( 'NONE', #119, #158, #197 ) ;
#25 = DIRECTION ( 'NONE',  ( 0.000000000000000000, 1.000000000000000000, 0.000000000000000000 ) ) ;
#26 = LOCAL_TIME ( 11, 23, 5.000000000000000000, #200 ) ;
#27 = FACE_OUTER_BOUND ( 'NONE', #170, .T. ) ;
#28 = PERSON_AND_ORGANIZATION ( #231, #185 ) ;
#29 = APPROVAL_DATE_TIME ( #128, #60 ) ;
#30 = ORIENTED_EDGE ( 'NONE', *, *, #208, .F. ) ;
#31 = PERSON_AND_ORGANIZATION ( #231, #185 ) ;
#32 = EDGE_LOOP ( 'NONE', ( #143 ) ) ;
#33 = EDGE_CURVE ( 'NONE', #187, #187, #140, .T. ) ;
#34 = COORDINATED_UNIVERSAL_TIME_OFFSET ( 1, 0, .AHEAD. ) ;
#35 = CARTESIAN_POINT ( 'NONE',  ( 0.000000000000000000, 0.000000000000000000, 0.000000000000000000 ) ) ;
#36 = DIRECTION ( 'NONE',  ( 3.491481338843133355E-15, -1.224646799147353207E-16, 1.000000000000000000 ) ) ;
#37 = FACE_OUTER_BOUND ( 'NONE', #229, .T. ) ;
#38 = CLOSED_SHELL ( 'NONE', ( #113, #55, #43, #8, #218, #82 ) ) ;
#39 = DIRECTION ( 'NONE',  ( 3.491481338843133355E-15, -1.224646799147353207E-16, 1.000000000000000000 ) ) ;
#40 = DATE_AND_TIME ( #156, #26 ) ;
#41 = CARTESIAN_POINT ( 'NONE',  ( 1.396592535537253342E-14, 1.349783804395671026E-32, 4.000000000000000000 ) ) ;
#42 = CARTESIAN_POINT ( 'NONE',  ( 1.396592535537253342E-14, -4.898587196589412829E-16, 4.000000000000000000 ) ) ;
#43 = ADVANCED_FACE ( 'NONE', ( #63, #239 ), #184, .T. ) ;
#44 = DIRECTION ( 'NONE',  ( -3.491481338843133355E-15, 1.224646799147353207E-16, -1.000000000000000000 ) ) ;
#45 = VERTEX_POINT ( 'NONE', #212 ) ;
#46 = APPROVAL_STATUS ( 'not_yet_approved' ) ;
#47 = EDGE_CURVE ( 'NONE', #6, #6, #64, .T. ) ;
#48 = AXIS2_PLACEMENT_3D ( 'NONE', #206, #39, #106 ) ;
#49 = EDGE_LOOP ( 'NONE', ( #159 ) ) ;
#50 = PRODUCT_DEFINITION ( 'UNKNOWN', '', #105, #114 ) ;
#51 = CARTESIAN_POINT ( 'NONE',  ( 0.000000000000000000, 0.000000000000000000, 0.000000000000000000 ) ) ;
#52 = PERSON_AND_ORGANIZATION ( #231, #185 ) ;
#53 = FACE_OUTER_BOUND ( 'NONE', #176, .T. ) ;
#54 = DIRECTION ( 'NONE',  ( 0.000000000000000000, 0.000000000000000000, 1.000000000000000000 ) ) ;
#55 = ADVANCED_FACE ( 'NONE', ( #18, #88 ), #66, .T. ) ;
#56 = APPLICATION_PROTOCOL_DEFINITION ( 'international standard', 'config_control_design', 1994, #135 ) ;
#57 = APPROVAL_PERSON_ORGANIZATION ( #28, #155, #112 ) ;
#58 = MANIFOLD_SOLID_BREP ( 'Corps-Déplacer/Copier1[2]', #164 ) ;
#59 = EDGE_LOOP ( 'NONE', ( #30 ) ) ;
#60 = APPROVAL ( #122, 'UNSPECIFIED' ) ;
#61 = PERSON_AND_ORGANIZATION_ROLE ( 'classification_officer' ) ;
#62 = EDGE_LOOP ( 'NONE', ( #151 ) ) ;
#63 = FACE_OUTER_BOUND ( 'NONE', #32, .T. ) ;
#64 = CIRCLE ( 'NONE', #150, 2.999999999999995115 ) ;
#65 = MANIFOLD_SOLID_BREP ( 'Corps-Déplacer/Copier1[1]', #38 ) ;
#66 = CYLINDRICAL_SURFACE ( 'NONE', #2, 1.799999999999999822 ) ;
#67 = DATE_TIME_ROLE ( 'creation_date' ) ;
#68 = APPROVAL_DATE_TIME ( #12, #204 ) ;
#69 = CARTESIAN_POINT ( 'NONE',  ( 1.396592535537253342E-14, -4.898587196589412829E-16, 4.000000000000000000 ) ) ;
#70 = CC_DESIGN_DATE_AND_TIME_ASSIGNMENT ( #40, #71, ( #17 ) ) ;
#71 = DATE_TIME_ROLE ( 'classification_date' ) ;
#72 = DIRECTION ( 'NONE',  ( 4.275831445896958607E-31, 1.000000000000000000, 1.224646799147353207E-16 ) ) ;
#73 = CIRCLE ( 'NONE', #179, 2.000000000000000000 ) ;
#74 = FACE_OUTER_BOUND ( 'NONE', #99, .T. ) ;
#75 = DIRECTION ( 'NONE',  ( 1.000000000000000000, 0.000000000000000000, 0.000000000000000000 ) ) ;
#76 = ADVANCED_FACE ( 'NONE', ( #141, #3 ), #222, .T. ) ;
#77 = CALENDAR_DATE ( 2024, 12, 7 ) ;
#78 = VERTEX_POINT ( 'NONE', #108 ) ;
#79 = CC_DESIGN_PERSON_AND_ORGANIZATION_ASSIGNMENT ( #219, #180, ( #105 ) ) ;
#80 = AXIS2_PLACEMENT_3D ( 'NONE', #104, #123, #181 ) ;
#81 = CARTESIAN_POINT ( 'NONE',  ( -4.275831445896957731E-31, 1.499759782661857608E-32, -1.224646799147353207E-16 ) ) ;
#82 = ADVANCED_FACE ( 'NONE', ( #37 ), #227, .F. ) ;
#83 = PRODUCT ( '957593', '957593', '', ( #161 ) ) ;
#84 = AXIS2_PLACEMENT_3D ( 'NONE', #69, #139, #224 ) ;
#85 = FACE_OUTER_BOUND ( 'NONE', #191, .T. ) ;
#86 = DIRECTION ( 'NONE',  ( 4.275831445896958607E-31, 1.000000000000000000, 1.224646799147353454E-16 ) ) ;
#87 = DATE_AND_TIME ( #228, #165 ) ;
#88 = FACE_OUTER_BOUND ( 'NONE', #49, .T. ) ;
#89 = SHAPE_DEFINITION_REPRESENTATION ( #149, #192 ) ;
#90 = EDGE_LOOP ( 'NONE', ( #174 ) ) ;
#91 = DIRECTION ( 'NONE',  ( -3.491481338843133355E-15, 1.224646799147353207E-16, -1.000000000000000000 ) ) ;
#92 = EDGE_CURVE ( 'NONE', #163, #163, #142, .T. ) ;
#93 = CARTESIAN_POINT ( 'NONE',  ( -8.551662891793915461E-31, 2.999519565323715216E-32, -2.449293598294706414E-16 ) ) ;
#94 = CARTESIAN_POINT ( 'NONE',  ( 1.745740669421566678E-13, -6.123233995736766085E-15, 50.00000000000000000 ) ) ;
#95 = VERTEX_POINT ( 'NONE', #166 ) ;
#96 =( LENGTH_UNIT ( ) NAMED_UNIT ( * ) SI_UNIT ( .MILLI., .METRE. ) );
#97 = CALENDAR_DATE ( 2024, 12, 7 ) ;
#98 = ADVANCED_FACE ( 'NONE', ( #53 ), #205, .T. ) ;
#99 = EDGE_LOOP ( 'NONE', ( #134 ) ) ;
#100 = ORIENTED_EDGE ( 'NONE', *, *, #1, .F. ) ;
#101 = APPROVAL_ROLE ( '' ) ;
#102 = CARTESIAN_POINT ( 'NONE',  ( 1.745740669421566678E-13, -6.123233995736766085E-15, 50.00000000000000000 ) ) ;
#103 = DIRECTION ( 'NONE',  ( 0.000000000000000000, -1.000000000000000000, 0.000000000000000000 ) ) ;
#104 = CARTESIAN_POINT ( 'NONE',  ( 1.745740669421566678E-13, 1.874699728327313799E-32, 50.00000000000000000 ) ) ;
#105 = PRODUCT_DEFINITION_FORMATION_WITH_SPECIFIED_SOURCE ( 'ANY', '', #83, .NOT_KNOWN. ) ;
#106 = DIRECTION ( 'NONE',  ( -4.275831445896958607E-31, -1.000000000000000000, -1.224646799147353207E-16 ) ) ;
#107 = DIRECTION ( 'NONE',  ( 3.491481338843133355E-15, -1.224646799147353207E-16, 1.000000000000000000 ) ) ;
#108 = CARTESIAN_POINT ( 'NONE',  ( 1.745740669421566678E-13, 2.499999999999994671, 50.00000000000000000 ) ) ;
#109 = PLANE ( 'NONE',  #234 ) ;
#110 =( NAMED_UNIT ( * ) SI_UNIT ( $, .STERADIAN. ) SOLID_ANGLE_UNIT ( ) );
#111 = LOCAL_TIME ( 11, 23, 5.000000000000000000, #34 ) ;
#112 = APPROVAL_ROLE ( '' ) ;
#113 = ADVANCED_FACE ( 'NONE', ( #74 ), #182, .F. ) ;
#114 = DESIGN_CONTEXT ( 'detailed design', #135, 'design' ) ;
#115 = ORIENTED_EDGE ( 'NONE', *, *, #132, .T. ) ;
#116 = AXIS2_PLACEMENT_3D ( 'NONE', #94, #44, #25 ) ;
#117 = APPROVAL_DATE_TIME ( #169, #155 ) ;
#118 = PERSON_AND_ORGANIZATION ( #231, #185 ) ;
#119 = CARTESIAN_POINT ( 'NONE',  ( 1.728283262727351074E-13, -6.062001655779398511E-15, 49.50000000000000000 ) ) ;
#120 = DIRECTION ( 'NONE',  ( -3.491481338843133355E-15, 1.224646799147353207E-16, -1.000000000000000000 ) ) ;
#121 = APPLICATION_CONTEXT ( 'configuration controlled 3d designs of mechanical parts and assemblies' ) ;
#122 = APPROVAL_STATUS ( 'not_yet_approved' ) ;
#123 = DIRECTION ( 'NONE',  ( -3.491481338843133355E-15, 1.224646799147353207E-16, -1.000000000000000000 ) ) ;
#124 = AXIS2_PLACEMENT_3D ( 'NONE', #35, #220, #86 ) ;
#125 = CYLINDRICAL_SURFACE ( 'NONE', #124, 2.999999999999998224 ) ;
#126 = CARTESIAN_POINT ( 'NONE',  ( 1.728283262727351074E-13, 2.999999999999994671, 49.50000000000000000 ) ) ;
#127 = AXIS2_PLACEMENT_3D ( 'NONE', #102, #152, #201 ) ;
#128 = DATE_AND_TIME ( #77, #226 ) ;
#129 = APPROVAL_PERSON_ORGANIZATION ( #52, #60, #202 ) ;
#130 = DIRECTION ( 'NONE',  ( -3.491481338843133355E-15, 1.224646799147353207E-16, -1.000000000000000000 ) ) ;
#131 = PRODUCT_RELATED_PRODUCT_CATEGORY ( 'detail', '', ( #83 ) ) ;
#132 = EDGE_CURVE ( 'NONE', #45, #45, #217, .T. ) ;
#133 = PERSON_AND_ORGANIZATION_ROLE ( 'design_owner' ) ;
#134 = ORIENTED_EDGE ( 'NONE', *, *, #92, .T. ) ;
#135 = APPLICATION_CONTEXT ( 'configuration controlled 3d designs of mechanical parts and assemblies' ) ;
#136 = ORIENTED_EDGE ( 'NONE', *, *, #132, .F. ) ;
#137 = AXIS2_PLACEMENT_3D ( 'NONE', #20, #91, #213 ) ;
#138 = CARTESIAN_POINT ( 'NONE',  ( 0.000000000000000000, 0.000000000000000000, 0.000000000000000000 ) ) ;
#139 = DIRECTION ( 'NONE',  ( -3.491481338843133355E-15, 1.224646799147353207E-16, -1.000000000000000000 ) ) ;
#140 = CIRCLE ( 'NONE', #24, 3.000000000000000888 ) ;
#141 = FACE_OUTER_BOUND ( 'NONE', #9, .T. ) ;
#142 = CIRCLE ( 'NONE', #84, 1.799999999999999600 ) ;
#143 = ORIENTED_EDGE ( 'NONE', *, *, #47, .T. ) ;
#144 = EDGE_CURVE ( 'NONE', #95, #95, #160, .T. ) ;
#145 = CARTESIAN_POINT ( 'NONE',  ( 1.396592535537253342E-14, 1.799999999999999156, 4.000000000000000000 ) ) ;
#146 = CC_DESIGN_SECURITY_CLASSIFICATION ( #17, ( #105 ) ) ;
#147 = DIRECTION ( 'NONE',  ( -3.491481338843133355E-15, 1.224646799147353207E-16, -1.000000000000000000 ) ) ;
#148 =( NAMED_UNIT ( * ) PLANE_ANGLE_UNIT ( ) SI_UNIT ( $, .RADIAN. ) );
#149 = PRODUCT_DEFINITION_SHAPE ( 'NONE', 'NONE',  #50 ) ;
#150 = AXIS2_PLACEMENT_3D ( 'NONE', #178, #15, #154 ) ;
#151 = ORIENTED_EDGE ( 'NONE', *, *, #33, .F. ) ;
#152 = DIRECTION ( 'NONE',  ( -3.491481338843133355E-15, 1.224646799147353207E-16, -1.000000000000000000 ) ) ;
#153 = AXIS2_PLACEMENT_3D ( 'NONE', #41, #107, #183 ) ;
#154 = DIRECTION ( 'NONE',  ( 0.000000000000000000, 1.000000000000000000, 0.000000000000000000 ) ) ;
#155 = APPROVAL ( #46, 'UNSPECIFIED' ) ;
#156 = CALENDAR_DATE ( 2024, 12, 7 ) ;
#157 = DIRECTION ( 'NONE',  ( 4.275831445896958607E-31, 1.000000000000000000, 1.224646799147353207E-16 ) ) ;
#158 = DIRECTION ( 'NONE',  ( -3.491481338843133355E-15, 1.224646799147353207E-16, -1.000000000000000000 ) ) ;
#159 = ORIENTED_EDGE ( 'NONE', *, *, #92, .F. ) ;
#160 = CIRCLE ( 'NONE', #237, 2.000000000000000000 ) ;
#161 = MECHANICAL_CONTEXT ( 'NONE', #121, 'mechanical' ) ;
#162 = DIRECTION ( 'NONE',  ( 0.000000000000000000, 1.000000000000000000, 0.000000000000000000 ) ) ;
#163 = VERTEX_POINT ( 'NONE', #145 ) ;
#164 = CLOSED_SHELL ( 'NONE', ( #189, #76, #98 ) ) ;
#165 = LOCAL_TIME ( 11, 23, 5.000000000000000000, #16 ) ;
#166 = CARTESIAN_POINT ( 'NONE',  ( 1.396592535537253342E-14, 1.999999999999999556, 4.000000000000000000 ) ) ;
#167 = COORDINATED_UNIVERSAL_TIME_OFFSET ( 1, 0, .AHEAD. ) ;
#168 = CC_DESIGN_DATE_AND_TIME_ASSIGNMENT ( #87, #67, ( #50 ) ) ;
#169 = DATE_AND_TIME ( #97, #175 ) ;
#170 = EDGE_LOOP ( 'NONE', ( #216 ) ) ;
#171 = CC_DESIGN_APPROVAL ( #155, ( #50 ) ) ;
#172 = ORIENTED_EDGE ( 'NONE', *, *, #47, .F. ) ;
#173 = PERSON_AND_ORGANIZATION_ROLE ( 'creator' ) ;
#174 = ORIENTED_EDGE ( 'NONE', *, *, #33, .T. ) ;
#175 = LOCAL_TIME ( 11, 23, 5.000000000000000000, #190 ) ;
#176 = EDGE_LOOP ( 'NONE', ( #193 ) ) ;
#177 = CC_DESIGN_PERSON_AND_ORGANIZATION_ASSIGNMENT ( #233, #133, ( #83 ) ) ;
#178 = CARTESIAN_POINT ( 'NONE',  ( 3.212162831735685211E-14, -1.126675055215566006E-15, 9.200000000000008171 ) ) ;
#179 = AXIS2_PLACEMENT_3D ( 'NONE', #93, #147, #186 ) ;
#180 = PERSON_AND_ORGANIZATION_ROLE ( 'design_supplier' ) ;
#181 = DIRECTION ( 'NONE',  ( 4.275831445896958607E-31, 1.000000000000000000, 1.224646799147353207E-16 ) ) ;
#182 = PLANE ( 'NONE',  #153 ) ;
#183 = DIRECTION ( 'NONE',  ( -4.275831445896958607E-31, -1.000000000000000000, -1.224646799147353207E-16 ) ) ;
#184 = CONICAL_SURFACE ( 'NONE', #209, 1.800000000000000044, 0.7853981633974428389 ) ;
#185 = ORGANIZATION ( 'UNSPECIFIED', 'UNSPECIFIED', '' ) ;
#186 = DIRECTION ( 'NONE',  ( 4.275831445896958607E-31, 1.000000000000000000, 1.224646799147353207E-16 ) ) ;
#187 = VERTEX_POINT ( 'NONE', #126 ) ;
#188 = CC_DESIGN_PERSON_AND_ORGANIZATION_ASSIGNMENT ( #14, #199, ( #50 ) ) ;
#189 = ADVANCED_FACE ( 'NONE', ( #27 ), #109, .T. ) ;
#190 = COORDINATED_UNIVERSAL_TIME_OFFSET ( 1, 0, .AHEAD. ) ;
#191 = EDGE_LOOP ( 'NONE', ( #172 ) ) ;
#192 = ADVANCED_BREP_SHAPE_REPRESENTATION ( '957593', ( #65, #58, #21 ), #215 ) ;
#193 = ORIENTED_EDGE ( 'NONE', *, *, #144, .F. ) ;
#194 = CONICAL_SURFACE ( 'NONE', #116, 2.500000000000000888, 0.7853981633974479459 ) ;
#195 = ORIENTED_EDGE ( 'NONE', *, *, #144, .T. ) ;
#196 = PERSON_AND_ORGANIZATION ( #231, #185 ) ;
#197 = DIRECTION ( 'NONE',  ( 0.000000000000000000, 1.000000000000000000, 0.000000000000000000 ) ) ;
#198 = CARTESIAN_POINT ( 'NONE',  ( 2.793185071074506684E-14, -9.797174393178825657E-16, 8.000000000000000000 ) ) ;
#199 = PERSON_AND_ORGANIZATION_ROLE ( 'creator' ) ;
#200 = COORDINATED_UNIVERSAL_TIME_OFFSET ( 1, 0, .AHEAD. ) ;
#201 = DIRECTION ( 'NONE',  ( 0.000000000000000000, 1.000000000000000000, 0.000000000000000000 ) ) ;
#202 = APPROVAL_ROLE ( '' ) ;
#203 = CIRCLE ( 'NONE', #127, 2.500000000000000888 ) ;
#204 = APPROVAL ( #221, 'UNSPECIFIED' ) ;
#205 = PLANE ( 'NONE',  #48 ) ;
#206 = CARTESIAN_POINT ( 'NONE',  ( 1.396592535537253342E-14, 1.499759782661856787E-32, 4.000000000000000000 ) ) ;
#207 = FACE_BOUND ( 'NONE', #242, .T. ) ;
#208 = EDGE_CURVE ( 'NONE', #232, #232, #73, .T. ) ;
#209 = AXIS2_PLACEMENT_3D ( 'NONE', #198, #36, #103 ) ;
#210 = APPLICATION_PROTOCOL_DEFINITION ( 'international standard', 'config_control_design', 1994, #121 ) ;
#211 = CC_DESIGN_APPROVAL ( #60, ( #105 ) ) ;
#212 = CARTESIAN_POINT ( 'NONE',  ( 2.793185071074506684E-14, 1.799999999999998934, 8.000000000000000000 ) ) ;
#213 = DIRECTION ( 'NONE',  ( 0.000000000000000000, 1.000000000000000000, 0.000000000000000000 ) ) ;
#214 = DIRECTION ( 'NONE',  ( 4.275831445896958607E-31, 1.000000000000000000, 1.224646799147353207E-16 ) ) ;
#215 =( GEOMETRIC_REPRESENTATION_CONTEXT ( 3 ) GLOBAL_UNCERTAINTY_ASSIGNED_CONTEXT ( ( #225 ) ) GLOBAL_UNIT_ASSIGNED_CONTEXT ( ( #96, #148, #110 ) ) REPRESENTATION_CONTEXT ( 'NONE', 'WORKASPACE' ) );
#216 = ORIENTED_EDGE ( 'NONE', *, *, #208, .T. ) ;
#217 = CIRCLE ( 'NONE', #137, 1.800000000000000044 ) ;
#218 = ADVANCED_FACE ( 'NONE', ( #22, #207 ), #194, .T. ) ;
#219 = PERSON_AND_ORGANIZATION ( #231, #185 ) ;
#220 = DIRECTION ( 'NONE',  ( -3.491481338843133355E-15, 1.224646799147353207E-16, -1.000000000000000000 ) ) ;
#221 = APPROVAL_STATUS ( 'not_yet_approved' ) ;
#222 = CYLINDRICAL_SURFACE ( 'NONE', #11, 2.000000000000000000 ) ;
#223 = CC_DESIGN_PERSON_AND_ORGANIZATION_ASSIGNMENT ( #118, #61, ( #17 ) ) ;
#224 = DIRECTION ( 'NONE',  ( 0.000000000000000000, 1.000000000000000000, 0.000000000000000000 ) ) ;
#225 = UNCERTAINTY_MEASURE_WITH_UNIT (LENGTH_MEASURE( 1.000000000000000082E-05 ), #96, 'distance_accuracy_value', 'NONE');
#226 = LOCAL_TIME ( 11, 23, 5.000000000000000000, #167 ) ;
#227 = PLANE ( 'NONE',  #80 ) ;
#228 = CALENDAR_DATE ( 2024, 12, 7 ) ;
#229 = EDGE_LOOP ( 'NONE', ( #100 ) ) ;
#230 = CARTESIAN_POINT ( 'NONE',  ( 0.000000000000000000, 0.000000000000000000, 0.000000000000000000 ) ) ;
#231 = PERSON ( 'UNSPECIFIED', 'UNSPECIFIED', 'UNSPECIFIED', ('UNSPECIFIED'), ('UNSPECIFIED'), ('UNSPECIFIED') ) ;
#232 = VERTEX_POINT ( 'NONE', #23 ) ;
#233 = PERSON_AND_ORGANIZATION ( #231, #185 ) ;
#234 = AXIS2_PLACEMENT_3D ( 'NONE', #81, #130, #214 ) ;
#235 = SECURITY_CLASSIFICATION_LEVEL ( 'unclassified' ) ;
#236 = FACE_OUTER_BOUND ( 'NONE', #90, .T. ) ;
#237 = AXIS2_PLACEMENT_3D ( 'NONE', #42, #4, #162 ) ;
#238 = CC_DESIGN_APPROVAL ( #204, ( #17 ) ) ;
#239 = FACE_BOUND ( 'NONE', #10, .T. ) ;
#240 = CC_DESIGN_PERSON_AND_ORGANIZATION_ASSIGNMENT ( #31, #173, ( #105 ) ) ;
#241 = CALENDAR_DATE ( 2024, 12, 7 ) ;
#242 = EDGE_LOOP ( 'NONE', ( #19 ) ) ;
#243 = DIRECTION ( 'NONE',  ( -3.491481338843133355E-15, 1.224646799147353207E-16, -1.000000000000000000 ) ) ;
ENDSEC;
END-ISO-10303-21;
