ISO-10303-21;
HEADER;
FILE_DESCRIPTION (( 'STEP AP203' ),
    '1' );
FILE_NAME ('957528.step',
    '2021-10-15T09:34:32',
    ( '' ),
    ( '' ),
    'SwSTEP 2.0',
    'SolidWorks 2019',
    '' );
FILE_SCHEMA (( 'CONFIG_CONTROL_DESIGN' ));
ENDSEC;

DATA;
#1 = ADVANCED_FACE ( 'NONE', ( #152, #173 ), #194, .T. ) ;
#2 = AXIS2_PLACEMENT_3D ( 'NONE', #102, #171, #245 ) ;
#3 = ORIENTED_EDGE ( 'NONE', *, *, #163, .T. ) ;
#4 = ORIENTED_EDGE ( 'NONE', *, *, #165, .F. ) ;
#5 = ORIENTED_EDGE ( 'NONE', *, *, #187, .T. ) ;
#6 = PERSON_AND_ORGANIZATION ( #46, #200 ) ;
#7 = ORIENTED_EDGE ( 'NONE', *, *, #165, .T. ) ;
#8 = DIRECTION ( 'NONE',  ( 4.275831445896958607E-31, 1.000000000000000000, 1.224646799147353207E-16 ) ) ;
#9 = CIRCLE ( 'NONE', #43, 0.7673076923073994804 ) ;
#10 = DIRECTION ( 'NONE',  ( 8.217301096052232464E-30, -1.000000000000000000, 2.312964634635750155E-15 ) ) ;
#11 =( NAMED_UNIT ( * ) SI_UNIT ( $, .STERADIAN. ) SOLID_ANGLE_UNIT ( ) );
#12 = MANIFOLD_SOLID_BREP ( 'Corps-Déplacer/Copier1[2]', #17 ) ;
#13 = DIRECTION ( 'NONE',  ( 4.275831445896958607E-31, 1.000000000000000000, 1.224646799147353207E-16 ) ) ;
#14 = FACE_OUTER_BOUND ( 'NONE', #51, .T. ) ;
#15 = FACE_OUTER_BOUND ( 'NONE', #49, .T. ) ;
#16 = CARTESIAN_POINT ( 'NONE',  ( 6.605412512040018169E-14, 2.316866826674203500E-14, 18.91865334794730202 ) ) ;
#17 = CLOSED_SHELL ( 'NONE', ( #153, #61, #118, #212 ) ) ;
#18 = PERSON_AND_ORGANIZATION ( #46, #200 ) ;
#19 = APPROVAL_DATE_TIME ( #145, #115 ) ;
#20 = CC_DESIGN_DATE_AND_TIME_ASSIGNMENT ( #201, #79, ( #66 ) ) ;
#21 = PERSON_AND_ORGANIZATION ( #46, #200 ) ;
#22 = APPROVAL_PERSON_ORGANIZATION ( #18, #115, #164 ) ;
#23 = COORDINATED_UNIVERSAL_TIME_OFFSET ( 1, 0, .AHEAD. ) ;
#24 = CONICAL_SURFACE ( 'NONE', #39, 1.999999999999971800, 0.2617993877991487972 ) ;
#25 = DIRECTION ( 'NONE',  ( -3.491481338843133355E-15, -1.224646799147354045E-15, -1.000000000000000000 ) ) ;
#26 = AXIS2_PLACEMENT_3D ( 'NONE', #89, #58, #236 ) ;
#27 = EDGE_LOOP ( 'NONE', ( #247 ) ) ;
#28 = EDGE_LOOP ( 'NONE', ( #132 ) ) ;
#29 = ADVANCED_FACE ( 'NONE', ( #192 ), #73, .F. ) ;
#30 = EDGE_LOOP ( 'NONE', ( #246 ) ) ;
#31 = CARTESIAN_POINT ( 'NONE',  ( -3.491481338843130200E-15, -1.224646799147353059E-15, -0.9999999999999991118 ) ) ;
#32 = VERTEX_POINT ( 'NONE', #198 ) ;
#33 = LOCAL_TIME ( 11, 34, 32.00000000000000000, #95 ) ;
#34 = DIRECTION ( 'NONE',  ( 3.491481338843133355E-15, 1.224646799147354045E-15, 1.000000000000000000 ) ) ;
#35 = CARTESIAN_POINT ( 'NONE',  ( 5.953893224527988479E-14, -1.499999999999974465, 17.05262794416294980 ) ) ;
#36 = CARTESIAN_POINT ( 'NONE',  ( 1.745740669421566678E-13, -6.123233995736766085E-15, 50.00000000000000000 ) ) ;
#37 = MECHANICAL_CONTEXT ( 'NONE', #65, 'mechanical' ) ;
#38 = CLOSED_SHELL ( 'NONE', ( #124, #1, #243, #42, #226, #29 ) ) ;
#39 = AXIS2_PLACEMENT_3D ( 'NONE', #16, #72, #253 ) ;
#40 = PERSON_AND_ORGANIZATION_ROLE ( 'creator' ) ;
#41 = DATE_TIME_ROLE ( 'classification_date' ) ;
#42 = ADVANCED_FACE ( 'NONE', ( #126, #205 ), #188, .T. ) ;
#43 = AXIS2_PLACEMENT_3D ( 'NONE', #74, #157, #218 ) ;
#44 = PRODUCT_DEFINITION_SHAPE ( 'NONE', 'NONE',  #66 ) ;
#45 = CARTESIAN_POINT ( 'NONE',  ( 1.314250779028468555E-15, 4.609771193413910489E-16, 0.3764163836155378640 ) ) ;
#46 = PERSON ( 'UNSPECIFIED', 'UNSPECIFIED', 'UNSPECIFIED', ('UNSPECIFIED'), ('UNSPECIFIED'), ('UNSPECIFIED') ) ;
#47 = FACE_BOUND ( 'NONE', #209, .T. ) ;
#48 = CIRCLE ( 'NONE', #119, 0.9499999999999895195 ) ;
#49 = EDGE_LOOP ( 'NONE', ( #174 ) ) ;
#50 = CIRCLE ( 'NONE', #109, 0.9499999999999895195 ) ;
#51 = EDGE_LOOP ( 'NONE', ( #190 ) ) ;
#52 = DIRECTION ( 'NONE',  ( -3.491481338843133355E-15, -1.224646799147354045E-15, -1.000000000000000000 ) ) ;
#53 = FACE_OUTER_BOUND ( 'NONE', #175, .T. ) ;
#54 = VERTEX_POINT ( 'NONE', #142 ) ;
#55 = DIRECTION ( 'NONE',  ( 0.0000000000000000000, -1.000000000000000000, 0.0000000000000000000 ) ) ;
#56 = CC_DESIGN_PERSON_AND_ORGANIZATION_ASSIGNMENT ( #166, #186, ( #99 ) ) ;
#57 = CARTESIAN_POINT ( 'NONE',  ( 5.237222008264700033E-14, 0.9499999999999978462, 15.00000000000000000 ) ) ;
#58 = DIRECTION ( 'NONE',  ( 3.491481338843133355E-15, -1.224646799147353207E-16, 1.000000000000000000 ) ) ;
#59 = CARTESIAN_POINT ( 'NONE',  ( 1.745740669421566678E-13, 8.998558695971067645E-33, 50.00000000000000000 ) ) ;
#60 = AXIS2_PLACEMENT_3D ( 'NONE', #235, #52, #176 ) ;
#61 = ADVANCED_FACE ( 'NONE', ( #80 ), #185, .T. ) ;
#62 = PERSON_AND_ORGANIZATION_ROLE ( 'creator' ) ;
#63 = LOCAL_TIME ( 11, 34, 32.00000000000000000, #23 ) ;
#64 = SHAPE_DEFINITION_REPRESENTATION ( #44, #206 ) ;
#65 = APPLICATION_CONTEXT ( 'configuration controlled 3d designs of mechanical parts and assemblies' ) ;
#66 = PRODUCT_DEFINITION ( 'UNKNOWN', '', #99, #170 ) ;
#67 = AXIS2_PLACEMENT_3D ( 'NONE', #45, #127, #207 ) ;
#68 = APPROVAL_PERSON_ORGANIZATION ( #108, #181, #178 ) ;
#69 = EDGE_LOOP ( 'NONE', ( #3 ) ) ;
#70 = DIRECTION ( 'NONE',  ( 3.491481338843133355E-15, -1.224646799147353207E-16, 1.000000000000000000 ) ) ;
#71 = ORIENTED_EDGE ( 'NONE', *, *, #258, .T. ) ;
#72 = DIRECTION ( 'NONE',  ( 3.491481338843133355E-15, 1.224646799147354045E-15, 1.000000000000000000 ) ) ;
#73 = PLANE ( 'NONE',  #158 ) ;
#74 = CARTESIAN_POINT ( 'NONE',  ( 9.750909943324864643E-16, 3.420158807099215531E-16, 0.2792771605233819732 ) ) ;
#75 = PLANE ( 'NONE',  #26 ) ;
#76 = DIRECTION ( 'NONE',  ( 0.0000000000000000000, -1.000000000000000000, 0.0000000000000000000 ) ) ;
#77 = CARTESIAN_POINT ( 'NONE',  ( 1.990144363140586013E-14, 6.980486755139916067E-15, 5.699999999999999289 ) ) ;
#78 = CALENDAR_DATE ( 2021, 15, 10 ) ;
#79 = DATE_TIME_ROLE ( 'creation_date' ) ;
#80 = FACE_OUTER_BOUND ( 'NONE', #250, .T. ) ;
#81 = EDGE_LOOP ( 'NONE', ( #191 ) ) ;
#82 = EDGE_CURVE ( 'NONE', #248, #248, #168, .T. ) ;
#83 = ORIENTED_EDGE ( 'NONE', *, *, #82, .T. ) ;
#84 = PERSON_AND_ORGANIZATION_ROLE ( 'design_owner' ) ;
#85 = ORIENTED_EDGE ( 'NONE', *, *, #187, .F. ) ;
#86 = LOCAL_TIME ( 11, 34, 32.00000000000000000, #94 ) ;
#87 = CARTESIAN_POINT ( 'NONE',  ( 1.990144363140586013E-14, -0.9499999999999825251, 5.699999999999999289 ) ) ;
#88 = DIRECTION ( 'NONE',  ( -4.054589356604751532E-30, 1.000000000000000000, -1.141265444721596133E-15 ) ) ;
#89 = CARTESIAN_POINT ( 'NONE',  ( 1.990144363140586013E-14, 1.124819836996384037E-32, 5.699999999999999289 ) ) ;
#90 = VERTEX_POINT ( 'NONE', #237 ) ;
#91 = DIRECTION ( 'NONE',  ( -3.491481338843133355E-15, 1.224646799147353207E-16, -1.000000000000000000 ) ) ;
#92 = CIRCLE ( 'NONE', #224, 1.499999999999995337 ) ;
#93 = PERSON_AND_ORGANIZATION ( #46, #200 ) ;
#94 = COORDINATED_UNIVERSAL_TIME_OFFSET ( 1, 0, .AHEAD. ) ;
#95 = COORDINATED_UNIVERSAL_TIME_OFFSET ( 1, 0, .AHEAD. ) ;
#96 = APPROVAL_PERSON_ORGANIZATION ( #21, #160, #241 ) ;
#97 = CC_DESIGN_PERSON_AND_ORGANIZATION_ASSIGNMENT ( #93, #62, ( #99 ) ) ;
#98 = CALENDAR_DATE ( 2021, 15, 10 ) ;
#99 = PRODUCT_DEFINITION_FORMATION_WITH_SPECIFIED_SOURCE ( 'ANY', '', #148, .NOT_KNOWN. ) ;
#100 = UNCERTAINTY_MEASURE_WITH_UNIT (LENGTH_MEASURE( 1.000000000000000082E-05 ), #259, 'distance_accuracy_value', 'NONE');
#101 = DIRECTION ( 'NONE',  ( -4.054589356604751532E-30, 1.000000000000000000, -1.141265444721596133E-15 ) ) ;
#102 = CARTESIAN_POINT ( 'NONE',  ( 9.750909943324864643E-16, 3.420158807099215531E-16, 0.2792771605233819732 ) ) ;
#103 = CIRCLE ( 'NONE', #256, 1.200000000000001732 ) ;
#104 = ORIENTED_EDGE ( 'NONE', *, *, #254, .F. ) ;
#105 = VERTEX_POINT ( 'NONE', #57 ) ;
#106 = DIRECTION ( 'NONE',  ( 0.0000000000000000000, 1.000000000000000000, 0.0000000000000000000 ) ) ;
#107 = CC_DESIGN_PERSON_AND_ORGANIZATION_ASSIGNMENT ( #6, #84, ( #148 ) ) ;
#108 = PERSON_AND_ORGANIZATION ( #46, #200 ) ;
#109 = AXIS2_PLACEMENT_3D ( 'NONE', #180, #139, #76 ) ;
#110 = DIRECTION ( 'NONE',  ( -3.491481338843133355E-15, -1.224646799147354045E-15, -1.000000000000000000 ) ) ;
#111 = CC_DESIGN_APPROVAL ( #181, ( #66 ) ) ;
#112 =( NAMED_UNIT ( * ) PLANE_ANGLE_UNIT ( ) SI_UNIT ( $, .RADIAN. ) );
#113 = DIRECTION ( 'NONE',  ( 3.491481338843133355E-15, 1.224646799147354045E-15, 1.000000000000000000 ) ) ;
#114 = VERTEX_POINT ( 'NONE', #135 ) ;
#115 = APPROVAL ( #120, 'UNSPECIFIED' ) ;
#116 = DIRECTION ( 'NONE',  ( 0.0000000000000000000, 1.000000000000000000, 0.0000000000000000000 ) ) ;
#117 = CARTESIAN_POINT ( 'NONE',  ( 1.314250779028464414E-15, 0.9499999999999995115, 0.3764163836155366982 ) ) ;
#118 = ADVANCED_FACE ( 'NONE', ( #47, #159 ), #244, .T. ) ;
#119 = AXIS2_PLACEMENT_3D ( 'NONE', #77, #219, #55 ) ;
#120 = APPROVAL_STATUS ( 'not_yet_approved' ) ;
#121 = DATE_AND_TIME ( #167, #33 ) ;
#122 = PERSON_AND_ORGANIZATION ( #46, #200 ) ;
#123 = CALENDAR_DATE ( 2021, 15, 10 ) ;
#124 = ADVANCED_FACE ( 'NONE', ( #196, #53 ), #195, .T. ) ;
#125 = LOCAL_TIME ( 11, 34, 32.00000000000000000, #242 ) ;
#126 = FACE_OUTER_BOUND ( 'NONE', #129, .T. ) ;
#127 = DIRECTION ( 'NONE',  ( -3.491481338843133355E-15, -1.224646799147354045E-15, -1.000000000000000000 ) ) ;
#128 = PRODUCT_RELATED_PRODUCT_CATEGORY ( 'detail', '', ( #148 ) ) ;
#129 = EDGE_LOOP ( 'NONE', ( #131 ) ) ;
#130 = AXIS2_PLACEMENT_3D ( 'NONE', #230, #25, #101 ) ;
#131 = ORIENTED_EDGE ( 'NONE', *, *, #254, .T. ) ;
#132 = ORIENTED_EDGE ( 'NONE', *, *, #82, .F. ) ;
#133 = APPLICATION_PROTOCOL_DEFINITION ( 'international standard', 'config_control_design', 1994, #136 ) ;
#134 = FACE_OUTER_BOUND ( 'NONE', #28, .T. ) ;
#135 = CARTESIAN_POINT ( 'NONE',  ( 1.735266225405037467E-13, 1.499999999999995559, 49.70000000000000284 ) ) ;
#136 = APPLICATION_CONTEXT ( 'configuration controlled 3d designs of mechanical parts and assemblies' ) ;
#137 = AXIS2_PLACEMENT_3D ( 'NONE', #233, #161, #239 ) ;
#138 = CARTESIAN_POINT ( 'NONE',  ( 1.735266225405037467E-13, -6.086494591762345225E-15, 49.70000000000000284 ) ) ;
#139 = DIRECTION ( 'NONE',  ( -3.491481338843133355E-15, 1.224646799147353207E-16, -1.000000000000000000 ) ) ;
#140 = DIRECTION ( 'NONE',  ( 4.257318824434945878E-30, -1.000000000000000000, 1.198328716957663771E-15 ) ) ;
#141 = EDGE_CURVE ( 'NONE', #155, #155, #92, .T. ) ;
#142 = CARTESIAN_POINT ( 'NONE',  ( 1.990144363140586013E-14, -0.9499999999999825251, 5.699999999999999289 ) ) ;
#143 = AXIS2_PLACEMENT_3D ( 'NONE', #31, #110, #88 ) ;
#144 = SECURITY_CLASSIFICATION_LEVEL ( 'unclassified' ) ;
#145 = DATE_AND_TIME ( #147, #125 ) ;
#146 = CC_DESIGN_APPROVAL ( #160, ( #169 ) ) ;
#147 = CALENDAR_DATE ( 2021, 15, 10 ) ;
#148 = PRODUCT ( '957528', '957528', '', ( #37 ) ) ;
#149 = EDGE_LOOP ( 'NONE', ( #83 ) ) ;
#150 = DIRECTION ( 'NONE',  ( -3.491481338843133355E-15, 1.224646799147353207E-16, -1.000000000000000000 ) ) ;
#151 = EDGE_LOOP ( 'NONE', ( #4 ) ) ;
#152 = FACE_OUTER_BOUND ( 'NONE', #214, .T. ) ;
#153 = ADVANCED_FACE ( 'NONE', ( #255 ), #75, .T. ) ;
#154 = CARTESIAN_POINT ( 'NONE',  ( 1.990144363140586013E-14, 1.124819836996384037E-32, 5.699999999999999289 ) ) ;
#155 = VERTEX_POINT ( 'NONE', #35 ) ;
#156 = DIRECTION ( 'NONE',  ( -3.491481338843133355E-15, 1.224646799147353207E-16, -1.000000000000000000 ) ) ;
#157 = DIRECTION ( 'NONE',  ( -3.491481338843133355E-15, -1.224646799147354045E-15, -1.000000000000000000 ) ) ;
#158 = AXIS2_PLACEMENT_3D ( 'NONE', #154, #70, #231 ) ;
#159 = FACE_OUTER_BOUND ( 'NONE', #149, .T. ) ;
#160 = APPROVAL ( #261, 'UNSPECIFIED' ) ;
#161 = DIRECTION ( 'NONE',  ( 0.0000000000000000000, 0.0000000000000000000, 1.000000000000000000 ) ) ;
#162 = PERSON_AND_ORGANIZATION ( #46, #200 ) ;
#163 = EDGE_CURVE ( 'NONE', #90, #90, #103, .T. ) ;
#164 = APPROVAL_ROLE ( '' ) ;
#165 = EDGE_CURVE ( 'NONE', #54, #54, #48, .T. ) ;
#166 = PERSON_AND_ORGANIZATION ( #46, #200 ) ;
#167 = CALENDAR_DATE ( 2021, 15, 10 ) ;
#168 = CIRCLE ( 'NONE', #67, 0.9499999999999991784 ) ;
#169 = SECURITY_CLASSIFICATION ( '', '', #144 ) ;
#170 = DESIGN_CONTEXT ( 'detailed design', #136, 'design' ) ;
#171 = DIRECTION ( 'NONE',  ( 3.491481338843133355E-15, 1.224646799147354045E-15, 1.000000000000000000 ) ) ;
#172 = AXIS2_PLACEMENT_3D ( 'NONE', #197, #156, #13 ) ;
#173 = FACE_BOUND ( 'NONE', #69, .T. ) ;
#174 = ORIENTED_EDGE ( 'NONE', *, *, #227, .T. ) ;
#175 = EDGE_LOOP ( 'NONE', ( #5 ) ) ;
#176 = DIRECTION ( 'NONE',  ( -6.487342970567670834E-30, 1.000000000000000000, -1.826024711554573061E-15 ) ) ;
#177 = EDGE_LOOP ( 'NONE', ( #104 ) ) ;
#178 = APPROVAL_ROLE ( '' ) ;
#179 = FACE_BOUND ( 'NONE', #177, .T. ) ;
#180 = CARTESIAN_POINT ( 'NONE',  ( 1.990144363140586013E-14, 6.980486755139916067E-15, 5.699999999999999289 ) ) ;
#181 = APPROVAL ( #193, 'UNSPECIFIED' ) ;
#182 = CARTESIAN_POINT ( 'NONE',  ( 5.953893224527987217E-14, 2.088344622886987595E-14, 17.05262794416294625 ) ) ;
#183 = FACE_OUTER_BOUND ( 'NONE', #81, .T. ) ;
#184 = COORDINATED_UNIVERSAL_TIME_OFFSET ( 1, 0, .AHEAD. ) ;
#185 = CONICAL_SURFACE ( 'NONE', #2, 0.7673076923073994804, 1.221730476396032161 ) ;
#186 = PERSON_AND_ORGANIZATION_ROLE ( 'design_supplier' ) ;
#187 = EDGE_CURVE ( 'NONE', #114, #114, #199, .T. ) ;
#188 = CYLINDRICAL_SURFACE ( 'NONE', #130, 0.9499999999999895195 ) ;
#189 = AXIS2_PLACEMENT_3D ( 'NONE', #59, #221, #8 ) ;
#190 = ORIENTED_EDGE ( 'NONE', *, *, #163, .F. ) ;
#191 = ORIENTED_EDGE ( 'NONE', *, *, #141, .F. ) ;
#192 = FACE_OUTER_BOUND ( 'NONE', #213, .T. ) ;
#193 = APPROVAL_STATUS ( 'not_yet_approved' ) ;
#194 = CONICAL_SURFACE ( 'NONE', #228, 1.200000000000001732, 0.7853981633974453924 ) ;
#195 = CYLINDRICAL_SURFACE ( 'NONE', #172, 1.499999999999995337 ) ;
#196 = FACE_OUTER_BOUND ( 'NONE', #30, .T. ) ;
#197 = CARTESIAN_POINT ( 'NONE',  ( 0.0000000000000000000, 0.0000000000000000000, 0.0000000000000000000 ) ) ;
#198 = CARTESIAN_POINT ( 'NONE',  ( 9.750909943324833089E-16, 0.7673076923073998135, 0.2792771605233810850 ) ) ;
#199 = CIRCLE ( 'NONE', #249, 1.500000000000001554 ) ;
#200 = ORGANIZATION ( 'UNSPECIFIED', 'UNSPECIFIED', '' ) ;
#201 = DATE_AND_TIME ( #123, #204 ) ;
#202 = PERSON_AND_ORGANIZATION_ROLE ( 'classification_officer' ) ;
#203 = APPROVAL_DATE_TIME ( #260, #160 ) ;
#204 = LOCAL_TIME ( 11, 34, 32.00000000000000000, #184 ) ;
#205 = FACE_OUTER_BOUND ( 'NONE', #151, .T. ) ;
#206 = ADVANCED_BREP_SHAPE_REPRESENTATION ( '957528', ( #263, #12, #137 ), #257 ) ;
#207 = DIRECTION ( 'NONE',  ( -4.257318824434945878E-30, 1.000000000000000000, -1.198328716957663771E-15 ) ) ;
#208 = CC_DESIGN_PERSON_AND_ORGANIZATION_ASSIGNMENT ( #122, #202, ( #169 ) ) ;
#209 = EDGE_LOOP ( 'NONE', ( #234 ) ) ;
#210 = AXIS2_PLACEMENT_3D ( 'NONE', #217, #113, #140 ) ;
#211 = CC_DESIGN_SECURITY_CLASSIFICATION ( #169, ( #99 ) ) ;
#212 = ADVANCED_FACE ( 'NONE', ( #15, #134 ), #215, .T. ) ;
#213 = EDGE_LOOP ( 'NONE', ( #7 ) ) ;
#214 = EDGE_LOOP ( 'NONE', ( #85 ) ) ;
#215 = CYLINDRICAL_SURFACE ( 'NONE', #143, 0.9499999999999895195 ) ;
#216 = VERTEX_POINT ( 'NONE', #87 ) ;
#217 = CARTESIAN_POINT ( 'NONE',  ( 1.314250779028468555E-15, 4.609771193413910489E-16, 0.3764163836155378640 ) ) ;
#218 = DIRECTION ( 'NONE',  ( -4.266972608618963193E-30, 1.000000000000000000, -1.201046015636029744E-15 ) ) ;
#219 = DIRECTION ( 'NONE',  ( -3.491481338843133355E-15, 1.224646799147353207E-16, -1.000000000000000000 ) ) ;
#220 = APPLICATION_PROTOCOL_DEFINITION ( 'international standard', 'config_control_design', 1994, #65 ) ;
#221 = DIRECTION ( 'NONE',  ( -3.491481338843133355E-15, 1.224646799147353207E-16, -1.000000000000000000 ) ) ;
#222 = CIRCLE ( 'NONE', #60, 0.9499999999999795275 ) ;
#223 = CC_DESIGN_PERSON_AND_ORGANIZATION_ASSIGNMENT ( #162, #40, ( #66 ) ) ;
#224 = AXIS2_PLACEMENT_3D ( 'NONE', #182, #34, #10 ) ;
#225 = DATE_AND_TIME ( #98, #86 ) ;
#226 = ADVANCED_FACE ( 'NONE', ( #179, #183 ), #24, .T. ) ;
#227 = EDGE_CURVE ( 'NONE', #216, #216, #50, .T. ) ;
#228 = AXIS2_PLACEMENT_3D ( 'NONE', #232, #150, #106 ) ;
#229 = CC_DESIGN_APPROVAL ( #115, ( #99 ) ) ;
#230 = CARTESIAN_POINT ( 'NONE',  ( -3.491481338843130200E-15, -1.224646799147353059E-15, -0.9999999999999991118 ) ) ;
#231 = DIRECTION ( 'NONE',  ( -4.275831445896958607E-31, -1.000000000000000000, -1.224646799147353207E-16 ) ) ;
#232 = CARTESIAN_POINT ( 'NONE',  ( 1.745740669421566678E-13, -6.123233995736766085E-15, 50.00000000000000000 ) ) ;
#233 = CARTESIAN_POINT ( 'NONE',  ( 0.0000000000000000000, 0.0000000000000000000, 0.0000000000000000000 ) ) ;
#234 = ORIENTED_EDGE ( 'NONE', *, *, #258, .F. ) ;
#235 = CARTESIAN_POINT ( 'NONE',  ( 5.237222008264700664E-14, 1.836970198721031324E-14, 15.00000000000000178 ) ) ;
#236 = DIRECTION ( 'NONE',  ( -4.275831445896958607E-31, -1.000000000000000000, -1.224646799147353207E-16 ) ) ;
#237 = CARTESIAN_POINT ( 'NONE',  ( 1.745740669421566678E-13, 1.199999999999995515, 50.00000000000000000 ) ) ;
#238 = DIRECTION ( 'NONE',  ( -3.491481338843133355E-15, 1.224646799147353207E-16, -1.000000000000000000 ) ) ;
#239 = DIRECTION ( 'NONE',  ( 1.000000000000000000, 0.0000000000000000000, 0.0000000000000000000 ) ) ;
#240 = CC_DESIGN_DATE_AND_TIME_ASSIGNMENT ( #225, #41, ( #169 ) ) ;
#241 = APPROVAL_ROLE ( '' ) ;
#242 = COORDINATED_UNIVERSAL_TIME_OFFSET ( 1, 0, .AHEAD. ) ;
#243 = ADVANCED_FACE ( 'NONE', ( #14 ), #251, .F. ) ;
#244 = CONICAL_SURFACE ( 'NONE', #210, 0.9499999999999992895, 1.082104136236485825 ) ;
#245 = DIRECTION ( 'NONE',  ( 4.266972608618963193E-30, -1.000000000000000000, 1.201046015636029744E-15 ) ) ;
#246 = ORIENTED_EDGE ( 'NONE', *, *, #141, .T. ) ;
#247 = ORIENTED_EDGE ( 'NONE', *, *, #227, .F. ) ;
#248 = VERTEX_POINT ( 'NONE', #117 ) ;
#249 = AXIS2_PLACEMENT_3D ( 'NONE', #138, #91, #116 ) ;
#250 = EDGE_LOOP ( 'NONE', ( #71 ) ) ;
#251 = PLANE ( 'NONE',  #189 ) ;
#252 = DIRECTION ( 'NONE',  ( 0.0000000000000000000, 1.000000000000000000, 0.0000000000000000000 ) ) ;
#253 = DIRECTION ( 'NONE',  ( 6.162975822039241610E-30, -1.000000000000000000, 1.734723475976831549E-15 ) ) ;
#254 = EDGE_CURVE ( 'NONE', #105, #105, #222, .T. ) ;
#255 = FACE_OUTER_BOUND ( 'NONE', #27, .T. ) ;
#256 = AXIS2_PLACEMENT_3D ( 'NONE', #36, #238, #252 ) ;
#257 =( GEOMETRIC_REPRESENTATION_CONTEXT ( 3 ) GLOBAL_UNCERTAINTY_ASSIGNED_CONTEXT ( ( #100 ) ) GLOBAL_UNIT_ASSIGNED_CONTEXT ( ( #259, #112, #11 ) ) REPRESENTATION_CONTEXT ( 'NONE', 'WORKASPACE' ) );
#258 = EDGE_CURVE ( 'NONE', #32, #32, #9, .T. ) ;
#259 =( LENGTH_UNIT ( ) NAMED_UNIT ( * ) SI_UNIT ( .MILLI., .METRE. ) );
#260 = DATE_AND_TIME ( #78, #63 ) ;
#261 = APPROVAL_STATUS ( 'not_yet_approved' ) ;
#262 = APPROVAL_DATE_TIME ( #121, #181 ) ;
#263 = MANIFOLD_SOLID_BREP ( 'Corps-Déplacer/Copier1[1]', #38 ) ;
ENDSEC;
END-ISO-10303-21;
