ISO-10303-21;
HEADER;
FILE_DESCRIPTION (( 'STEP AP203' ),
    '1' );
FILE_NAME ('957527.step',
    '2021-10-15T09:34:31',
    ( '' ),
    ( '' ),
    'SwSTEP 2.0',
    'SolidWorks 2019',
    '' );
FILE_SCHEMA (( 'CONFIG_CONTROL_DESIGN' ));
ENDSEC;

DATA;
#1 = CARTESIAN_POINT ( 'NONE',  ( 1.780655482809997696E-14, 1.124819836996384037E-32, 5.099999999999999645 ) ) ;
#2 = AXIS2_PLACEMENT_3D ( 'NONE', #210, #5, #54 ) ;
#3 = FACE_BOUND ( 'NONE', #142, .T. ) ;
#4 = ADVANCED_FACE ( 'NONE', ( #3, #97 ), #256, .T. ) ;
#5 = DIRECTION ( 'NONE',  ( 3.491481338843133355E-15, 1.224646799147354045E-15, 1.000000000000000000 ) ) ;
#6 = DIRECTION ( 'NONE',  ( -3.491481338843133355E-15, 1.224646799147353207E-16, -1.000000000000000000 ) ) ;
#7 = PERSON_AND_ORGANIZATION ( #202, #50 ) ;
#8 = DIRECTION ( 'NONE',  ( -3.491481338843133355E-15, 1.224646799147353207E-16, -1.000000000000000000 ) ) ;
#9 = LOCAL_TIME ( 11, 34, 31.00000000000000000, #88 ) ;
#10 = CALENDAR_DATE ( 2021, 15, 10 ) ;
#11 = PERSON_AND_ORGANIZATION_ROLE ( 'creator' ) ;
#12 = PERSON_AND_ORGANIZATION_ROLE ( 'design_owner' ) ;
#13 = DESIGN_CONTEXT ( 'detailed design', #173, 'design' ) ;
#14 = FACE_OUTER_BOUND ( 'NONE', #162, .T. ) ;
#15 = AXIS2_PLACEMENT_3D ( 'NONE', #67, #23, #178 ) ;
#16 = APPROVAL_DATE_TIME ( #253, #108 ) ;
#17 = VERTEX_POINT ( 'NONE', #199 ) ;
#18 = APPLICATION_PROTOCOL_DEFINITION ( 'international standard', 'config_control_design', 1994, #167 ) ;
#19 = APPROVAL_ROLE ( '' ) ;
#20 = AXIS2_PLACEMENT_3D ( 'NONE', #1, #94, #86 ) ;
#21 = ORIENTED_EDGE ( 'NONE', *, *, #127, .T. ) ;
#22 = CC_DESIGN_PERSON_AND_ORGANIZATION_ASSIGNMENT ( #36, #12, ( #186 ) ) ;
#23 = DIRECTION ( 'NONE',  ( 3.491481338843133355E-15, 1.224646799147354045E-15, 1.000000000000000000 ) ) ;
#24 = EDGE_CURVE ( 'NONE', #58, #58, #252, .T. ) ;
#25 = EDGE_LOOP ( 'NONE', ( #159 ) ) ;
#26 = FACE_OUTER_BOUND ( 'NONE', #258, .T. ) ;
#27 = ADVANCED_FACE ( 'NONE', ( #77, #225 ), #37, .T. ) ;
#28 = ORIENTED_EDGE ( 'NONE', *, *, #147, .F. ) ;
#29 = APPROVAL_DATE_TIME ( #185, #171 ) ;
#30 = FACE_OUTER_BOUND ( 'NONE', #218, .T. ) ;
#31 = DIRECTION ( 'NONE',  ( -3.491481338843133355E-15, -1.224646799147354045E-15, -1.000000000000000000 ) ) ;
#32 = DATE_AND_TIME ( #53, #126 ) ;
#33 = AXIS2_PLACEMENT_3D ( 'NONE', #166, #226, #95 ) ;
#34 = CC_DESIGN_SECURITY_CLASSIFICATION ( #141, ( #38 ) ) ;
#35 = COORDINATED_UNIVERSAL_TIME_OFFSET ( 1, 0, .AHEAD. ) ;
#36 = PERSON_AND_ORGANIZATION ( #202, #50 ) ;
#37 = CONICAL_SURFACE ( 'NONE', #2, 0.8499999999999992006, 1.082104136236484715 ) ;
#38 = PRODUCT_DEFINITION_FORMATION_WITH_SPECIFIED_SOURCE ( 'ANY', '', #186, .NOT_KNOWN. ) ;
#39 = CARTESIAN_POINT ( 'NONE',  ( 1.745740669421566678E-13, 1.199999999999995515, 50.00000000000000000 ) ) ;
#40 = EDGE_CURVE ( 'NONE', #176, #176, #190, .T. ) ;
#41 = ORIENTED_EDGE ( 'NONE', *, *, #122, .T. ) ;
#42 = AXIS2_PLACEMENT_3D ( 'NONE', #51, #245, #242 ) ;
#43 = DIRECTION ( 'NONE',  ( 0.0000000000000000000, -1.000000000000000000, 0.0000000000000000000 ) ) ;
#44 = ORIENTED_EDGE ( 'NONE', *, *, #24, .F. ) ;
#45 = DIRECTION ( 'NONE',  ( -3.491481338843133355E-15, -1.224646799147354045E-15, -1.000000000000000000 ) ) ;
#46 = CYLINDRICAL_SURFACE ( 'NONE', #113, 0.8499999999999893197 ) ;
#47 = DIRECTION ( 'NONE',  ( 8.217301096052232464E-30, -1.000000000000000000, 2.312964634635750155E-15 ) ) ;
#48 = AXIS2_PLACEMENT_3D ( 'NONE', #72, #31, #170 ) ;
#49 = FACE_OUTER_BOUND ( 'NONE', #128, .T. ) ;
#50 = ORGANIZATION ( 'UNSPECIFIED', 'UNSPECIFIED', '' ) ;
#51 = CARTESIAN_POINT ( 'NONE',  ( -3.491481338843130200E-15, -1.224646799147353059E-15, -0.9999999999999991118 ) ) ;
#52 = DATE_AND_TIME ( #10, #69 ) ;
#53 = CALENDAR_DATE ( 2021, 15, 10 ) ;
#54 = DIRECTION ( 'NONE',  ( 4.305019875689119475E-30, -1.000000000000000000, 1.211755369248506093E-15 ) ) ;
#55 = CONICAL_SURFACE ( 'NONE', #15, 0.6865384615381995292, 1.221730476396032383 ) ;
#56 = CC_DESIGN_APPROVAL ( #251, ( #38 ) ) ;
#57 = UNCERTAINTY_MEASURE_WITH_UNIT (LENGTH_MEASURE( 1.000000000000000082E-05 ), #177, 'distance_accuracy_value', 'NONE');
#58 = VERTEX_POINT ( 'NONE', #154 ) ;
#59 = CC_DESIGN_PERSON_AND_ORGANIZATION_ASSIGNMENT ( #78, #263, ( #38 ) ) ;
#60 = FACE_OUTER_BOUND ( 'NONE', #96, .T. ) ;
#61 = CIRCLE ( 'NONE', #143, 1.500000000000001554 ) ;
#62 = CARTESIAN_POINT ( 'NONE',  ( 0.0000000000000000000, 0.0000000000000000000, 0.0000000000000000000 ) ) ;
#63 = ADVANCED_BREP_SHAPE_REPRESENTATION ( '957527', ( #232, #70, #165 ), #138 ) ;
#64 = DIRECTION ( 'NONE',  ( 4.275831445896958607E-31, 1.000000000000000000, 1.224646799147353207E-16 ) ) ;
#65 = ORIENTED_EDGE ( 'NONE', *, *, #182, .F. ) ;
#66 = AXIS2_PLACEMENT_3D ( 'NONE', #133, #223, #47 ) ;
#67 = CARTESIAN_POINT ( 'NONE',  ( 8.724498370343296259E-16, 3.060142090562454159E-16, 0.2498795646788153635 ) ) ;
#68 = CIRCLE ( 'NONE', #48, 0.8499999999999793276 ) ;
#69 = LOCAL_TIME ( 11, 34, 31.00000000000000000, #111 ) ;
#70 = MANIFOLD_SOLID_BREP ( 'Corps-Déplacer/Copier1[2]', #152 ) ;
#71 = FACE_OUTER_BOUND ( 'NONE', #238, .T. ) ;
#72 = CARTESIAN_POINT ( 'NONE',  ( 5.237222008264700664E-14, 1.836970198721031324E-14, 15.00000000000000178 ) ) ;
#73 = DIRECTION ( 'NONE',  ( -3.491481338843133355E-15, 1.224646799147353207E-16, -1.000000000000000000 ) ) ;
#74 = AXIS2_PLACEMENT_3D ( 'NONE', #191, #146, #151 ) ;
#75 = CARTESIAN_POINT ( 'NONE',  ( 1.780655482809997696E-14, 6.245698675651505178E-15, 5.099999999999999645 ) ) ;
#76 = ADVANCED_FACE ( 'NONE', ( #211 ), #150, .T. ) ;
#77 = FACE_BOUND ( 'NONE', #90, .T. ) ;
#78 = PERSON_AND_ORGANIZATION ( #202, #50 ) ;
#79 = ADVANCED_FACE ( 'NONE', ( #26, #168 ), #46, .T. ) ;
#80 = MECHANICAL_CONTEXT ( 'NONE', #167, 'mechanical' ) ;
#81 = LOCAL_TIME ( 11, 34, 31.00000000000000000, #35 ) ;
#82 = VERTEX_POINT ( 'NONE', #140 ) ;
#83 = DIRECTION ( 'NONE',  ( 0.0000000000000000000, -1.000000000000000000, 0.0000000000000000000 ) ) ;
#84 = DIRECTION ( 'NONE',  ( -3.491481338843133355E-15, 1.224646799147353207E-16, -1.000000000000000000 ) ) ;
#85 = CC_DESIGN_PERSON_AND_ORGANIZATION_ASSIGNMENT ( #155, #11, ( #222 ) ) ;
#86 = DIRECTION ( 'NONE',  ( -4.275831445896958607E-31, -1.000000000000000000, -1.224646799147353207E-16 ) ) ;
#87 = EDGE_LOOP ( 'NONE', ( #259 ) ) ;
#88 = COORDINATED_UNIVERSAL_TIME_OFFSET ( 1, 0, .AHEAD. ) ;
#89 = CIRCLE ( 'NONE', #66, 1.499999999999995337 ) ;
#90 = EDGE_LOOP ( 'NONE', ( #110 ) ) ;
#91 = SHAPE_DEFINITION_REPRESENTATION ( #262, #63 ) ;
#92 = SECURITY_CLASSIFICATION_LEVEL ( 'unclassified' ) ;
#93 = CC_DESIGN_DATE_AND_TIME_ASSIGNMENT ( #32, #172, ( #222 ) ) ;
#94 = DIRECTION ( 'NONE',  ( 3.491481338843133355E-15, -1.224646799147353207E-16, 1.000000000000000000 ) ) ;
#95 = DIRECTION ( 'NONE',  ( 6.162975822039243012E-30, -1.000000000000000000, 1.734723475976831944E-15 ) ) ;
#96 = EDGE_LOOP ( 'NONE', ( #216 ) ) ;
#97 = FACE_OUTER_BOUND ( 'NONE', #239, .T. ) ;
#98 = ADVANCED_FACE ( 'NONE', ( #30, #49 ), #129, .T. ) ;
#99 = PERSON_AND_ORGANIZATION_ROLE ( 'design_supplier' ) ;
#100 = APPROVAL_PERSON_ORGANIZATION ( #174, #108, #212 ) ;
#101 = DIRECTION ( 'NONE',  ( 0.0000000000000000000, 1.000000000000000000, 0.0000000000000000000 ) ) ;
#102 = APPROVAL_DATE_TIME ( #236, #251 ) ;
#103 = APPLICATION_PROTOCOL_DEFINITION ( 'international standard', 'config_control_design', 1994, #173 ) ;
#104 =( NAMED_UNIT ( * ) SI_UNIT ( $, .STERADIAN. ) SOLID_ANGLE_UNIT ( ) );
#105 = CARTESIAN_POINT ( 'NONE',  ( 1.780655482809997696E-14, -0.8499999999999829914, 5.099999999999999645 ) ) ;
#106 = CARTESIAN_POINT ( 'NONE',  ( 1.735266225405037467E-13, 1.499999999999995559, 49.70000000000000284 ) ) ;
#107 = ORIENTED_EDGE ( 'NONE', *, *, #24, .T. ) ;
#108 = APPROVAL ( #231, 'UNSPECIFIED' ) ;
#109 = ORIENTED_EDGE ( 'NONE', *, *, #217, .T. ) ;
#110 = ORIENTED_EDGE ( 'NONE', *, *, #194, .F. ) ;
#111 = COORDINATED_UNIVERSAL_TIME_OFFSET ( 1, 0, .AHEAD. ) ;
#112 = CARTESIAN_POINT ( 'NONE',  ( 1.175908591762314147E-15, 4.124532120422972231E-16, 0.3367936063928497203 ) ) ;
#113 = AXIS2_PLACEMENT_3D ( 'NONE', #209, #243, #169 ) ;
#114 = EDGE_LOOP ( 'NONE', ( #44 ) ) ;
#115 = CARTESIAN_POINT ( 'NONE',  ( 1.780655482809997696E-14, 6.245698675651505178E-15, 5.099999999999999645 ) ) ;
#116 = PLANE ( 'NONE',  #157 ) ;
#117 = CARTESIAN_POINT ( 'NONE',  ( 1.745740669421566678E-13, 8.998558695971067645E-33, 50.00000000000000000 ) ) ;
#118 = PERSON_AND_ORGANIZATION ( #202, #50 ) ;
#119 = CALENDAR_DATE ( 2021, 15, 10 ) ;
#120 = AXIS2_PLACEMENT_3D ( 'NONE', #158, #215, #195 ) ;
#121 = VERTEX_POINT ( 'NONE', #233 ) ;
#122 = EDGE_CURVE ( 'NONE', #197, #197, #68, .T. ) ;
#123 = DIRECTION ( 'NONE',  ( 0.0000000000000000000, 0.0000000000000000000, 1.000000000000000000 ) ) ;
#124 = PERSON_AND_ORGANIZATION ( #202, #50 ) ;
#125 = ORIENTED_EDGE ( 'NONE', *, *, #122, .F. ) ;
#126 = LOCAL_TIME ( 11, 34, 31.00000000000000000, #248 ) ;
#127 = EDGE_CURVE ( 'NONE', #121, #121, #89, .T. ) ;
#128 = EDGE_LOOP ( 'NONE', ( #65 ) ) ;
#129 = CYLINDRICAL_SURFACE ( 'NONE', #42, 0.8499999999999893197 ) ;
#130 = CARTESIAN_POINT ( 'NONE',  ( 1.735266225405037467E-13, -6.086494591762345225E-15, 49.70000000000000284 ) ) ;
#131 = CC_DESIGN_PERSON_AND_ORGANIZATION_ASSIGNMENT ( #7, #99, ( #38 ) ) ;
#132 = CIRCLE ( 'NONE', #161, 0.8499999999999893197 ) ;
#133 = CARTESIAN_POINT ( 'NONE',  ( 6.084197082030401233E-14, 2.134049063644432984E-14, 17.42583302491983943 ) ) ;
#134 = CALENDAR_DATE ( 2021, 15, 10 ) ;
#135 = FACE_OUTER_BOUND ( 'NONE', #87, .T. ) ;
#136 = CARTESIAN_POINT ( 'NONE',  ( 1.745740669421566678E-13, -6.123233995736766085E-15, 50.00000000000000000 ) ) ;
#137 = AXIS2_PLACEMENT_3D ( 'NONE', #75, #260, #43 ) ;
#138 =( GEOMETRIC_REPRESENTATION_CONTEXT ( 3 ) GLOBAL_UNCERTAINTY_ASSIGNED_CONTEXT ( ( #57 ) ) GLOBAL_UNIT_ASSIGNED_CONTEXT ( ( #177, #234, #104 ) ) REPRESENTATION_CONTEXT ( 'NONE', 'WORKASPACE' ) );
#139 = FACE_BOUND ( 'NONE', #164, .T. ) ;
#140 = CARTESIAN_POINT ( 'NONE',  ( 8.724498370343267663E-16, 0.6865384615381998623, 0.2498795646788145031 ) ) ;
#141 = SECURITY_CLASSIFICATION ( '', '', #92 ) ;
#142 = EDGE_LOOP ( 'NONE', ( #125 ) ) ;
#143 = AXIS2_PLACEMENT_3D ( 'NONE', #130, #73, #101 ) ;
#144 = APPROVAL_PERSON_ORGANIZATION ( #124, #171, #228 ) ;
#145 = ORIENTED_EDGE ( 'NONE', *, *, #217, .F. ) ;
#146 = DIRECTION ( 'NONE',  ( 3.491481338843133355E-15, -1.224646799147353207E-16, 1.000000000000000000 ) ) ;
#147 = EDGE_CURVE ( 'NONE', #196, #196, #61, .T. ) ;
#148 = ORIENTED_EDGE ( 'NONE', *, *, #127, .F. ) ;
#149 = AXIS2_PLACEMENT_3D ( 'NONE', #235, #84, #64 ) ;
#150 = PLANE ( 'NONE',  #74 ) ;
#151 = DIRECTION ( 'NONE',  ( -4.275831445896958607E-31, -1.000000000000000000, -1.224646799147353207E-16 ) ) ;
#152 = CLOSED_SHELL ( 'NONE', ( #76, #214, #27, #79 ) ) ;
#153 = CC_DESIGN_APPROVAL ( #108, ( #222 ) ) ;
#154 = CARTESIAN_POINT ( 'NONE',  ( 1.175908591762310597E-15, 0.8499999999999996447, 0.3367936063928487211 ) ) ;
#155 = PERSON_AND_ORGANIZATION ( #202, #50 ) ;
#156 = CYLINDRICAL_SURFACE ( 'NONE', #149, 1.499999999999995337 ) ;
#157 = AXIS2_PLACEMENT_3D ( 'NONE', #117, #8, #192 ) ;
#158 = CARTESIAN_POINT ( 'NONE',  ( 1.745740669421566678E-13, -6.123233995736766085E-15, 50.00000000000000000 ) ) ;
#159 = ORIENTED_EDGE ( 'NONE', *, *, #194, .T. ) ;
#160 = CALENDAR_DATE ( 2021, 15, 10 ) ;
#161 = AXIS2_PLACEMENT_3D ( 'NONE', #115, #198, #83 ) ;
#162 = EDGE_LOOP ( 'NONE', ( #21 ) ) ;
#163 = ADVANCED_FACE ( 'NONE', ( #135 ), #116, .F. ) ;
#164 = EDGE_LOOP ( 'NONE', ( #205 ) ) ;
#165 = AXIS2_PLACEMENT_3D ( 'NONE', #62, #123, #213 ) ;
#166 = CARTESIAN_POINT ( 'NONE',  ( 6.735716369542429660E-14, 2.362571267431648889E-14, 19.29185842870419165 ) ) ;
#167 = APPLICATION_CONTEXT ( 'configuration controlled 3d designs of mechanical parts and assemblies' ) ;
#168 = FACE_OUTER_BOUND ( 'NONE', #114, .T. ) ;
#169 = DIRECTION ( 'NONE',  ( -4.531599869146494507E-30, 1.000000000000000000, -1.275531967630021319E-15 ) ) ;
#170 = DIRECTION ( 'NONE',  ( -7.250559790634476411E-30, 1.000000000000000000, -2.040851148208058091E-15 ) ) ;
#171 = APPROVAL ( #181, 'UNSPECIFIED' ) ;
#172 = DATE_TIME_ROLE ( 'creation_date' ) ;
#173 = APPLICATION_CONTEXT ( 'configuration controlled 3d designs of mechanical parts and assemblies' ) ;
#174 = PERSON_AND_ORGANIZATION ( #202, #50 ) ;
#175 = CIRCLE ( 'NONE', #237, 0.6865384615381995292 ) ;
#176 = VERTEX_POINT ( 'NONE', #39 ) ;
#177 =( LENGTH_UNIT ( ) NAMED_UNIT ( * ) SI_UNIT ( .MILLI., .METRE. ) );
#178 = DIRECTION ( 'NONE',  ( 4.207914164209012024E-30, -1.000000000000000000, 1.263384044129249310E-15 ) ) ;
#179 = EDGE_LOOP ( 'NONE', ( #28 ) ) ;
#180 = ORIENTED_EDGE ( 'NONE', *, *, #182, .T. ) ;
#181 = APPROVAL_STATUS ( 'not_yet_approved' ) ;
#182 = EDGE_CURVE ( 'NONE', #255, #255, #241, .T. ) ;
#183 = AXIS2_PLACEMENT_3D ( 'NONE', #136, #6, #193 ) ;
#184 = CC_DESIGN_APPROVAL ( #171, ( #141 ) ) ;
#185 = DATE_AND_TIME ( #134, #247 ) ;
#186 = PRODUCT ( '957527', '957527', '', ( #80 ) ) ;
#187 = EDGE_LOOP ( 'NONE', ( #145 ) ) ;
#188 = PLANE ( 'NONE',  #20 ) ;
#189 = EDGE_LOOP ( 'NONE', ( #107 ) ) ;
#190 = CIRCLE ( 'NONE', #183, 1.200000000000001732 ) ;
#191 = CARTESIAN_POINT ( 'NONE',  ( 1.780655482809997696E-14, 1.124819836996384037E-32, 5.099999999999999645 ) ) ;
#192 = DIRECTION ( 'NONE',  ( 4.275831445896958607E-31, 1.000000000000000000, 1.224646799147353207E-16 ) ) ;
#193 = DIRECTION ( 'NONE',  ( 0.0000000000000000000, 1.000000000000000000, 0.0000000000000000000 ) ) ;
#194 = EDGE_CURVE ( 'NONE', #82, #82, #175, .T. ) ;
#195 = DIRECTION ( 'NONE',  ( 0.0000000000000000000, 1.000000000000000000, 0.0000000000000000000 ) ) ;
#196 = VERTEX_POINT ( 'NONE', #106 ) ;
#197 = VERTEX_POINT ( 'NONE', #254 ) ;
#198 = DIRECTION ( 'NONE',  ( -3.491481338843133355E-15, 1.224646799147353207E-16, -1.000000000000000000 ) ) ;
#199 = CARTESIAN_POINT ( 'NONE',  ( 1.780655482809997696E-14, -0.8499999999999829914, 5.099999999999999645 ) ) ;
#200 = PRODUCT_RELATED_PRODUCT_CATEGORY ( 'detail', '', ( #186 ) ) ;
#201 = AXIS2_PLACEMENT_3D ( 'NONE', #112, #249, #207 ) ;
#202 = PERSON ( 'UNSPECIFIED', 'UNSPECIFIED', 'UNSPECIFIED', ('UNSPECIFIED'), ('UNSPECIFIED'), ('UNSPECIFIED') ) ;
#203 = CC_DESIGN_DATE_AND_TIME_ASSIGNMENT ( #52, #229, ( #141 ) ) ;
#204 = CONICAL_SURFACE ( 'NONE', #120, 1.200000000000001732, 0.7853981633974453924 ) ;
#205 = ORIENTED_EDGE ( 'NONE', *, *, #40, .T. ) ;
#206 = DIRECTION ( 'NONE',  ( -4.207914164209012024E-30, 1.000000000000000000, -1.263384044129249310E-15 ) ) ;
#207 = DIRECTION ( 'NONE',  ( -4.305019875689119475E-30, 1.000000000000000000, -1.211755369248506093E-15 ) ) ;
#208 = ADVANCED_FACE ( 'NONE', ( #71 ), #188, .F. ) ;
#209 = CARTESIAN_POINT ( 'NONE',  ( -3.491481338843130200E-15, -1.224646799147353059E-15, -0.9999999999999991118 ) ) ;
#210 = CARTESIAN_POINT ( 'NONE',  ( 1.175908591762314147E-15, 4.124532120422972231E-16, 0.3367936063928497203 ) ) ;
#211 = FACE_OUTER_BOUND ( 'NONE', #187, .T. ) ;
#212 = APPROVAL_ROLE ( '' ) ;
#213 = DIRECTION ( 'NONE',  ( 1.000000000000000000, 0.0000000000000000000, 0.0000000000000000000 ) ) ;
#214 = ADVANCED_FACE ( 'NONE', ( #261 ), #55, .T. ) ;
#215 = DIRECTION ( 'NONE',  ( -3.491481338843133355E-15, 1.224646799147353207E-16, -1.000000000000000000 ) ) ;
#216 = ORIENTED_EDGE ( 'NONE', *, *, #147, .T. ) ;
#217 = EDGE_CURVE ( 'NONE', #17, #17, #132, .T. ) ;
#218 = EDGE_LOOP ( 'NONE', ( #41 ) ) ;
#219 = COORDINATED_UNIVERSAL_TIME_OFFSET ( 1, 0, .AHEAD. ) ;
#220 = PERSON_AND_ORGANIZATION_ROLE ( 'classification_officer' ) ;
#221 = CARTESIAN_POINT ( 'NONE',  ( 8.724498370343296259E-16, 3.060142090562454159E-16, 0.2498795646788153635 ) ) ;
#222 = PRODUCT_DEFINITION ( 'UNKNOWN', '', #38, #13 ) ;
#223 = DIRECTION ( 'NONE',  ( 3.491481338843133355E-15, 1.224646799147354045E-15, 1.000000000000000000 ) ) ;
#224 = ADVANCED_FACE ( 'NONE', ( #227, #139 ), #204, .T. ) ;
#225 = FACE_OUTER_BOUND ( 'NONE', #189, .T. ) ;
#226 = DIRECTION ( 'NONE',  ( 3.491481338843133355E-15, 1.224646799147354045E-15, 1.000000000000000000 ) ) ;
#227 = FACE_OUTER_BOUND ( 'NONE', #179, .T. ) ;
#228 = APPROVAL_ROLE ( '' ) ;
#229 = DATE_TIME_ROLE ( 'classification_date' ) ;
#230 = APPROVAL_PERSON_ORGANIZATION ( #118, #251, #19 ) ;
#231 = APPROVAL_STATUS ( 'not_yet_approved' ) ;
#232 = MANIFOLD_SOLID_BREP ( 'Corps-Déplacer/Copier1[1]', #246 ) ;
#233 = CARTESIAN_POINT ( 'NONE',  ( 6.084197082030402495E-14, -1.499999999999974021, 17.42583302491984298 ) ) ;
#234 =( NAMED_UNIT ( * ) PLANE_ANGLE_UNIT ( ) SI_UNIT ( $, .RADIAN. ) );
#235 = CARTESIAN_POINT ( 'NONE',  ( 0.0000000000000000000, 0.0000000000000000000, 0.0000000000000000000 ) ) ;
#236 = DATE_AND_TIME ( #160, #9 ) ;
#237 = AXIS2_PLACEMENT_3D ( 'NONE', #221, #45, #206 ) ;
#238 = EDGE_LOOP ( 'NONE', ( #180 ) ) ;
#239 = EDGE_LOOP ( 'NONE', ( #148 ) ) ;
#240 = PERSON_AND_ORGANIZATION ( #202, #50 ) ;
#241 = CIRCLE ( 'NONE', #137, 0.8499999999999893197 ) ;
#242 = DIRECTION ( 'NONE',  ( -4.531599869146494507E-30, 1.000000000000000000, -1.275531967630021319E-15 ) ) ;
#243 = DIRECTION ( 'NONE',  ( -3.491481338843133355E-15, -1.224646799147354045E-15, -1.000000000000000000 ) ) ;
#244 = CC_DESIGN_PERSON_AND_ORGANIZATION_ASSIGNMENT ( #240, #220, ( #141 ) ) ;
#245 = DIRECTION ( 'NONE',  ( -3.491481338843133355E-15, -1.224646799147354045E-15, -1.000000000000000000 ) ) ;
#246 = CLOSED_SHELL ( 'NONE', ( #257, #224, #163, #98, #4, #208 ) ) ;
#247 = LOCAL_TIME ( 11, 34, 31.00000000000000000, #219 ) ;
#248 = COORDINATED_UNIVERSAL_TIME_OFFSET ( 1, 0, .AHEAD. ) ;
#249 = DIRECTION ( 'NONE',  ( -3.491481338843133355E-15, -1.224646799147354045E-15, -1.000000000000000000 ) ) ;
#250 = APPROVAL_STATUS ( 'not_yet_approved' ) ;
#251 = APPROVAL ( #250, 'UNSPECIFIED' ) ;
#252 = CIRCLE ( 'NONE', #201, 0.8499999999999992006 ) ;
#253 = DATE_AND_TIME ( #119, #81 ) ;
#254 = CARTESIAN_POINT ( 'NONE',  ( 5.237222008264700033E-14, 0.8499999999999976463, 15.00000000000000000 ) ) ;
#255 = VERTEX_POINT ( 'NONE', #105 ) ;
#256 = CONICAL_SURFACE ( 'NONE', #33, 1.999999999999971356, 0.2617993877991487417 ) ;
#257 = ADVANCED_FACE ( 'NONE', ( #14, #60 ), #156, .T. ) ;
#258 = EDGE_LOOP ( 'NONE', ( #109 ) ) ;
#259 = ORIENTED_EDGE ( 'NONE', *, *, #40, .F. ) ;
#260 = DIRECTION ( 'NONE',  ( -3.491481338843133355E-15, 1.224646799147353207E-16, -1.000000000000000000 ) ) ;
#261 = FACE_OUTER_BOUND ( 'NONE', #25, .T. ) ;
#262 = PRODUCT_DEFINITION_SHAPE ( 'NONE', 'NONE',  #222 ) ;
#263 = PERSON_AND_ORGANIZATION_ROLE ( 'creator' ) ;
ENDSEC;
END-ISO-10303-21;
