ISO-10303-21;
HEADER;
FILE_DESCRIPTION (( 'STEP AP203' ),
    '1' );
FILE_NAME ('957526.step',
    '2021-10-15T09:34:31',
    ( '' ),
    ( '' ),
    'SwSTEP 2.0',
    'SolidWorks 2019',
    '' );
FILE_SCHEMA (( 'CONFIG_CONTROL_DESIGN' ));
ENDSEC;

DATA;
#1 = AXIS2_PLACEMENT_3D ( 'NONE', #124, #126, #71 ) ;
#2 = CARTESIAN_POINT ( 'NONE',  ( 1.675911042644704011E-14, 5.878304635907299733E-15, 4.800000000000000711 ) ) ;
#3 = CARTESIAN_POINT ( 'NONE',  ( -3.491481338843130200E-15, -1.224646799147353059E-15, -0.9999999999999991118 ) ) ;
#4 = CARTESIAN_POINT ( 'NONE',  ( 1.735266225405037467E-13, -6.086494591762345225E-15, 49.70000000000000284 ) ) ;
#5 = CLOSED_SHELL ( 'NONE', ( #9, #147, #195, #70 ) ) ;
#6 = FACE_OUTER_BOUND ( 'NONE', #76, .T. ) ;
#7 = DIRECTION ( 'NONE',  ( -4.321878506156337973E-30, 1.000000000000000000, -1.216500651866639975E-15 ) ) ;
#8 =( NAMED_UNIT ( * ) SI_UNIT ( $, .STERADIAN. ) SOLID_ANGLE_UNIT ( ) );
#9 = ADVANCED_FACE ( 'NONE', ( #78 ), #39, .T. ) ;
#10 = DIRECTION ( 'NONE',  ( 1.000000000000000000, 0.0000000000000000000, 0.0000000000000000000 ) ) ;
#11 = AXIS2_PLACEMENT_3D ( 'NONE', #189, #254, #209 ) ;
#12 = CARTESIAN_POINT ( 'NONE',  ( 1.675911042644704011E-14, -0.7999999999999838352, 4.800000000000000711 ) ) ;
#13 = VERTEX_POINT ( 'NONE', #149 ) ;
#14 = APPROVAL_STATUS ( 'not_yet_approved' ) ;
#15 = APPROVAL_ROLE ( '' ) ;
#16 = AXIS2_PLACEMENT_3D ( 'NONE', #49, #175, #251 ) ;
#17 = ORIENTED_EDGE ( 'NONE', *, *, #86, .F. ) ;
#18 = DIRECTION ( 'NONE',  ( 0.0000000000000000000, 1.000000000000000000, 0.0000000000000000000 ) ) ;
#19 = DIRECTION ( 'NONE',  ( 3.491481338843133355E-15, -1.224646799147353207E-16, 1.000000000000000000 ) ) ;
#20 = EDGE_CURVE ( 'NONE', #235, #235, #33, .T. ) ;
#21 = CARTESIAN_POINT ( 'NONE',  ( 5.237222008264700664E-14, 1.836970198721031324E-14, 15.00000000000000178 ) ) ;
#22 = AXIS2_PLACEMENT_3D ( 'NONE', #208, #122, #182 ) ;
#23 = CC_DESIGN_APPROVAL ( #27, ( #47 ) ) ;
#24 = DIRECTION ( 'NONE',  ( -7.703719777549138193E-30, 1.000000000000000000, -2.168404344971063694E-15 ) ) ;
#25 = UNCERTAINTY_MEASURE_WITH_UNIT (LENGTH_MEASURE( 1.000000000000000082E-05 ), #104, 'distance_accuracy_value', 'NONE');
#26 = CARTESIAN_POINT ( 'NONE',  ( 1.106737498129237041E-15, 3.881912583927503102E-16, 0.3169822177815056485 ) ) ;
#27 = APPROVAL ( #83, 'UNSPECIFIED' ) ;
#28 = MECHANICAL_CONTEXT ( 'NONE', #139, 'mechanical' ) ;
#29 = CARTESIAN_POINT ( 'NONE',  ( 8.211292583852495797E-16, 0.6461538461535999422, 0.2351807667565316007 ) ) ;
#30 = CARTESIAN_POINT ( 'NONE',  ( 5.237222008264700033E-14, 0.7999999999999980460, 15.00000000000000000 ) ) ;
#31 = COORDINATED_UNIVERSAL_TIME_OFFSET ( 1, 0, .AHEAD. ) ;
#32 = COORDINATED_UNIVERSAL_TIME_OFFSET ( 1, 0, .AHEAD. ) ;
#33 = CIRCLE ( 'NONE', #99, 0.7999999999999897193 ) ;
#34 = CIRCLE ( 'NONE', #157, 0.7999999999999797273 ) ;
#35 = ORIENTED_EDGE ( 'NONE', *, *, #102, .F. ) ;
#36 = EDGE_LOOP ( 'NONE', ( #61 ) ) ;
#37 = DIRECTION ( 'NONE',  ( -3.491481338843133355E-15, 1.224646799147353207E-16, -1.000000000000000000 ) ) ;
#38 = AXIS2_PLACEMENT_3D ( 'NONE', #101, #186, #40 ) ;
#39 = PLANE ( 'NONE',  #172 ) ;
#40 = DIRECTION ( 'NONE',  ( 4.321878506156337973E-30, -1.000000000000000000, 1.216500651866639975E-15 ) ) ;
#41 = DIRECTION ( 'NONE',  ( 0.0000000000000000000, -1.000000000000000000, 0.0000000000000000000 ) ) ;
#42 = LOCAL_TIME ( 11, 34, 31.00000000000000000, #257 ) ;
#43 = DIRECTION ( 'NONE',  ( -3.491481338843133355E-15, -1.224646799147354045E-15, -1.000000000000000000 ) ) ;
#44 = VERTEX_POINT ( 'NONE', #128 ) ;
#45 = FACE_OUTER_BOUND ( 'NONE', #200, .T. ) ;
#46 = ORGANIZATION ( 'UNSPECIFIED', 'UNSPECIFIED', '' ) ;
#47 = PRODUCT_DEFINITION ( 'UNKNOWN', '', #163, #121 ) ;
#48 = MANIFOLD_SOLID_BREP ( 'Corps-Déplacer/Copier1[1]', #112 ) ;
#49 = CARTESIAN_POINT ( 'NONE',  ( 1.745740669421566678E-13, 8.998558695971067645E-33, 50.00000000000000000 ) ) ;
#50 = PERSON ( 'UNSPECIFIED', 'UNSPECIFIED', 'UNSPECIFIED', ('UNSPECIFIED'), ('UNSPECIFIED'), ('UNSPECIFIED') ) ;
#51 = VERTEX_POINT ( 'NONE', #148 ) ;
#52 = PERSON_AND_ORGANIZATION ( #50, #46 ) ;
#53 = CIRCLE ( 'NONE', #116, 0.6461538461535997202 ) ;
#54 = CONICAL_SURFACE ( 'NONE', #199, 0.7999999999999994893, 1.082104136236486269 ) ;
#55 = APPROVAL_STATUS ( 'not_yet_approved' ) ;
#56 = APPROVAL_DATE_TIME ( #196, #219 ) ;
#57 = EDGE_LOOP ( 'NONE', ( #154 ) ) ;
#58 = AXIS2_PLACEMENT_3D ( 'NONE', #183, #43, #120 ) ;
#59 = AXIS2_PLACEMENT_3D ( 'NONE', #100, #249, #65 ) ;
#60 = EDGE_LOOP ( 'NONE', ( #134 ) ) ;
#61 = ORIENTED_EDGE ( 'NONE', *, *, #164, .T. ) ;
#62 = CYLINDRICAL_SURFACE ( 'NONE', #94, 0.7999999999999897193 ) ;
#63 = LOCAL_TIME ( 11, 34, 31.00000000000000000, #159 ) ;
#64 = DIRECTION ( 'NONE',  ( -3.851859888774521452E-30, 1.000000000000000000, -1.355252715606897897E-15 ) ) ;
#65 = DIRECTION ( 'NONE',  ( 0.0000000000000000000, 1.000000000000000000, 0.0000000000000000000 ) ) ;
#66 = CARTESIAN_POINT ( 'NONE',  ( 1.106737498129237041E-15, 3.881912583927503102E-16, 0.3169822177815056485 ) ) ;
#67 = PLANE ( 'NONE',  #16 ) ;
#68 = CARTESIAN_POINT ( 'NONE',  ( 1.735266225405037467E-13, 1.499999999999995559, 49.70000000000000284 ) ) ;
#69 = DIRECTION ( 'NONE',  ( 4.333342374871283472E-30, -1.000000000000000000, 1.219727444046193277E-15 ) ) ;
#70 = ADVANCED_FACE ( 'NONE', ( #6, #246 ), #225, .T. ) ;
#71 = DIRECTION ( 'NONE',  ( 0.0000000000000000000, 1.000000000000000000, 0.0000000000000000000 ) ) ;
#72 =( GEOMETRIC_REPRESENTATION_CONTEXT ( 3 ) GLOBAL_UNCERTAINTY_ASSIGNED_CONTEXT ( ( #25 ) ) GLOBAL_UNIT_ASSIGNED_CONTEXT ( ( #104, #233, #8 ) ) REPRESENTATION_CONTEXT ( 'NONE', 'WORKASPACE' ) );
#73 = DATE_TIME_ROLE ( 'creation_date' ) ;
#74 = ORIENTED_EDGE ( 'NONE', *, *, #263, .T. ) ;
#75 = AXIS2_PLACEMENT_3D ( 'NONE', #174, #188, #212 ) ;
#76 = EDGE_LOOP ( 'NONE', ( #74 ) ) ;
#77 = ORIENTED_EDGE ( 'NONE', *, *, #20, .F. ) ;
#78 = FACE_OUTER_BOUND ( 'NONE', #262, .T. ) ;
#79 = DIRECTION ( 'NONE',  ( -3.491481338843133355E-15, -1.224646799147354045E-15, -1.000000000000000000 ) ) ;
#80 = FACE_OUTER_BOUND ( 'NONE', #113, .T. ) ;
#81 = DIRECTION ( 'NONE',  ( 3.491481338843133355E-15, -1.224646799147353207E-16, 1.000000000000000000 ) ) ;
#82 = PLANE ( 'NONE',  #203 ) ;
#83 = APPROVAL_STATUS ( 'not_yet_approved' ) ;
#84 = CC_DESIGN_APPROVAL ( #219, ( #163 ) ) ;
#85 = FACE_OUTER_BOUND ( 'NONE', #97, .T. ) ;
#86 = EDGE_CURVE ( 'NONE', #187, #187, #53, .T. ) ;
#87 = CARTESIAN_POINT ( 'NONE',  ( 0.0000000000000000000, 0.0000000000000000000, 0.0000000000000000000 ) ) ;
#88 = APPLICATION_PROTOCOL_DEFINITION ( 'international standard', 'config_control_design', 1994, #139 ) ;
#89 = CC_DESIGN_PERSON_AND_ORGANIZATION_ASSIGNMENT ( #223, #132, ( #163 ) ) ;
#90 = PERSON_AND_ORGANIZATION_ROLE ( 'creator' ) ;
#91 = SHAPE_DEFINITION_REPRESENTATION ( #197, #142 ) ;
#92 = APPROVAL ( #14, 'UNSPECIFIED' ) ;
#93 = DATE_AND_TIME ( #221, #210 ) ;
#94 = AXIS2_PLACEMENT_3D ( 'NONE', #3, #79, #64 ) ;
#95 = EDGE_CURVE ( 'NONE', #173, #173, #243, .T. ) ;
#96 = DIRECTION ( 'NONE',  ( -3.491481338843133355E-15, -1.224646799147354045E-15, -1.000000000000000000 ) ) ;
#97 = EDGE_LOOP ( 'NONE', ( #222 ) ) ;
#98 = CARTESIAN_POINT ( 'NONE',  ( 8.211292583852523407E-16, 2.880133732294078157E-16, 0.2351807667565323778 ) ) ;
#99 = AXIS2_PLACEMENT_3D ( 'NONE', #2, #166, #41 ) ;
#100 = CARTESIAN_POINT ( 'NONE',  ( 1.745740669421566678E-13, -6.123233995736766085E-15, 50.00000000000000000 ) ) ;
#101 = CARTESIAN_POINT ( 'NONE',  ( 8.211292583852523407E-16, 2.880133732294078157E-16, 0.2351807667565323778 ) ) ;
#102 = EDGE_CURVE ( 'NONE', #191, #191, #232, .T. ) ;
#103 = PERSON_AND_ORGANIZATION_ROLE ( 'design_owner' ) ;
#104 =( LENGTH_UNIT ( ) NAMED_UNIT ( * ) SI_UNIT ( .MILLI., .METRE. ) );
#105 = DIRECTION ( 'NONE',  ( 0.0000000000000000000, 0.0000000000000000000, 1.000000000000000000 ) ) ;
#106 = AXIS2_PLACEMENT_3D ( 'NONE', #115, #118, #117 ) ;
#107 = CC_DESIGN_DATE_AND_TIME_ASSIGNMENT ( #161, #73, ( #47 ) ) ;
#108 = DATE_AND_TIME ( #194, #237 ) ;
#109 = CALENDAR_DATE ( 2021, 15, 10 ) ;
#110 = EDGE_LOOP ( 'NONE', ( #17 ) ) ;
#111 = DATE_AND_TIME ( #260, #220 ) ;
#112 = CLOSED_SHELL ( 'NONE', ( #119, #256, #207, #123, #229, #167 ) ) ;
#113 = EDGE_LOOP ( 'NONE', ( #130 ) ) ;
#114 = CC_DESIGN_PERSON_AND_ORGANIZATION_ASSIGNMENT ( #52, #129, ( #176 ) ) ;
#115 = CARTESIAN_POINT ( 'NONE',  ( 0.0000000000000000000, 0.0000000000000000000, 0.0000000000000000000 ) ) ;
#116 = AXIS2_PLACEMENT_3D ( 'NONE', #98, #96, #7 ) ;
#117 = DIRECTION ( 'NONE',  ( 4.275831445896958607E-31, 1.000000000000000000, 1.224646799147353207E-16 ) ) ;
#118 = DIRECTION ( 'NONE',  ( -3.491481338843133355E-15, 1.224646799147353207E-16, -1.000000000000000000 ) ) ;
#119 = ADVANCED_FACE ( 'NONE', ( #204, #80 ), #138, .T. ) ;
#120 = DIRECTION ( 'NONE',  ( -3.851859888774521452E-30, 1.000000000000000000, -1.355252715606897897E-15 ) ) ;
#121 = DESIGN_CONTEXT ( 'detailed design', #244, 'design' ) ;
#122 = DIRECTION ( 'NONE',  ( 3.491481338843133355E-15, 1.224646799147354045E-15, 1.000000000000000000 ) ) ;
#123 = ADVANCED_FACE ( 'NONE', ( #248, #202 ), #62, .T. ) ;
#124 = CARTESIAN_POINT ( 'NONE',  ( 1.745740669421566678E-13, -6.123233995736766085E-15, 50.00000000000000000 ) ) ;
#125 = FACE_OUTER_BOUND ( 'NONE', #158, .T. ) ;
#126 = DIRECTION ( 'NONE',  ( -3.491481338843133355E-15, 1.224646799147353207E-16, -1.000000000000000000 ) ) ;
#127 = EDGE_CURVE ( 'NONE', #44, #44, #146, .T. ) ;
#128 = CARTESIAN_POINT ( 'NONE',  ( 1.106737498129233492E-15, 0.7999999999999999334, 0.3169822177815047048 ) ) ;
#129 = PERSON_AND_ORGANIZATION_ROLE ( 'classification_officer' ) ;
#130 = ORIENTED_EDGE ( 'NONE', *, *, #102, .T. ) ;
#131 = APPROVAL_ROLE ( '' ) ;
#132 = PERSON_AND_ORGANIZATION_ROLE ( 'design_supplier' ) ;
#133 = EDGE_LOOP ( 'NONE', ( #160 ) ) ;
#134 = ORIENTED_EDGE ( 'NONE', *, *, #86, .T. ) ;
#135 = AXIS2_PLACEMENT_3D ( 'NONE', #87, #105, #10 ) ;
#136 = APPROVAL_DATE_TIME ( #111, #27 ) ;
#137 = EDGE_LOOP ( 'NONE', ( #245 ) ) ;
#138 = CYLINDRICAL_SURFACE ( 'NONE', #106, 1.499999999999995337 ) ;
#139 = APPLICATION_CONTEXT ( 'configuration controlled 3d designs of mechanical parts and assemblies' ) ;
#140 = DIRECTION ( 'NONE',  ( -4.275831445896958607E-31, -1.000000000000000000, -1.224646799147353207E-16 ) ) ;
#141 = CONICAL_SURFACE ( 'NONE', #11, 1.999999999999970912, 0.2617993877991485197 ) ;
#142 = ADVANCED_BREP_SHAPE_REPRESENTATION ( '957526', ( #48, #230, #135 ), #72 ) ;
#143 = DIRECTION ( 'NONE',  ( -3.491481338843133355E-15, -1.224646799147354045E-15, -1.000000000000000000 ) ) ;
#144 = CC_DESIGN_DATE_AND_TIME_ASSIGNMENT ( #108, #217, ( #176 ) ) ;
#145 = DIRECTION ( 'NONE',  ( -4.275831445896958607E-31, -1.000000000000000000, -1.224646799147353207E-16 ) ) ;
#146 = CIRCLE ( 'NONE', #252, 0.7999999999999994893 ) ;
#147 = ADVANCED_FACE ( 'NONE', ( #206 ), #155, .T. ) ;
#148 = CARTESIAN_POINT ( 'NONE',  ( 1.675911042644704011E-14, -0.7999999999999838352, 4.800000000000000711 ) ) ;
#149 = CARTESIAN_POINT ( 'NONE',  ( 1.745740669421566678E-13, 1.199999999999995515, 50.00000000000000000 ) ) ;
#150 = APPROVAL_PERSON_ORGANIZATION ( #178, #219, #131 ) ;
#151 = CARTESIAN_POINT ( 'NONE',  ( 6.149349010781606979E-14, -1.499999999999973799, 17.61243556529828780 ) ) ;
#152 = APPLICATION_PROTOCOL_DEFINITION ( 'international standard', 'config_control_design', 1994, #244 ) ;
#153 = CALENDAR_DATE ( 2021, 15, 10 ) ;
#154 = ORIENTED_EDGE ( 'NONE', *, *, #20, .T. ) ;
#155 = CONICAL_SURFACE ( 'NONE', #38, 0.6461538461535997202, 1.221730476396031939 ) ;
#156 = PERSON_AND_ORGANIZATION ( #50, #46 ) ;
#157 = AXIS2_PLACEMENT_3D ( 'NONE', #21, #247, #24 ) ;
#158 = EDGE_LOOP ( 'NONE', ( #35 ) ) ;
#159 = COORDINATED_UNIVERSAL_TIME_OFFSET ( 1, 0, .AHEAD. ) ;
#160 = ORIENTED_EDGE ( 'NONE', *, *, #95, .T. ) ;
#161 = DATE_AND_TIME ( #109, #63 ) ;
#162 = ORIENTED_EDGE ( 'NONE', *, *, #171, .T. ) ;
#163 = PRODUCT_DEFINITION_FORMATION_WITH_SPECIFIED_SOURCE ( 'ANY', '', #177, .NOT_KNOWN. ) ;
#164 = EDGE_CURVE ( 'NONE', #211, #211, #34, .T. ) ;
#165 = CARTESIAN_POINT ( 'NONE',  ( 1.675911042644704011E-14, 1.124819836996384037E-32, 4.800000000000000711 ) ) ;
#166 = DIRECTION ( 'NONE',  ( -3.491481338843133355E-15, 1.224646799147353207E-16, -1.000000000000000000 ) ) ;
#167 = ADVANCED_FACE ( 'NONE', ( #227 ), #82, .F. ) ;
#168 = EDGE_LOOP ( 'NONE', ( #169 ) ) ;
#169 = ORIENTED_EDGE ( 'NONE', *, *, #127, .T. ) ;
#170 = FACE_BOUND ( 'NONE', #110, .T. ) ;
#171 = EDGE_CURVE ( 'NONE', #13, #13, #259, .T. ) ;
#172 = AXIS2_PLACEMENT_3D ( 'NONE', #165, #19, #140 ) ;
#173 = VERTEX_POINT ( 'NONE', #151 ) ;
#174 = CARTESIAN_POINT ( 'NONE',  ( 1.675911042644704011E-14, 5.878304635907299733E-15, 4.800000000000000711 ) ) ;
#175 = DIRECTION ( 'NONE',  ( -3.491481338843133355E-15, 1.224646799147353207E-16, -1.000000000000000000 ) ) ;
#176 = SECURITY_CLASSIFICATION ( '', '', #218 ) ;
#177 = PRODUCT ( '957526', '957526', '', ( #28 ) ) ;
#178 = PERSON_AND_ORGANIZATION ( #50, #46 ) ;
#179 = PRODUCT_RELATED_PRODUCT_CATEGORY ( 'detail', '', ( #177 ) ) ;
#180 = APPROVAL_PERSON_ORGANIZATION ( #261, #92, #15 ) ;
#181 = APPROVAL_PERSON_ORGANIZATION ( #213, #27, #239 ) ;
#182 = DIRECTION ( 'NONE',  ( 8.217301096052232464E-30, -1.000000000000000000, 2.312964634635750155E-15 ) ) ;
#183 = CARTESIAN_POINT ( 'NONE',  ( -3.491481338843130200E-15, -1.224646799147353059E-15, -0.9999999999999991118 ) ) ;
#184 = CARTESIAN_POINT ( 'NONE',  ( 1.675911042644704011E-14, 1.124819836996384037E-32, 4.800000000000000711 ) ) ;
#185 = CIRCLE ( 'NONE', #75, 0.7999999999999897193 ) ;
#186 = DIRECTION ( 'NONE',  ( 3.491481338843133355E-15, 1.224646799147354045E-15, 1.000000000000000000 ) ) ;
#187 = VERTEX_POINT ( 'NONE', #29 ) ;
#188 = DIRECTION ( 'NONE',  ( -3.491481338843133355E-15, 1.224646799147353207E-16, -1.000000000000000000 ) ) ;
#189 = CARTESIAN_POINT ( 'NONE',  ( 6.800868298293636668E-14, 2.385423487810371584E-14, 19.47846096908263647 ) ) ;
#190 = CC_DESIGN_PERSON_AND_ORGANIZATION_ASSIGNMENT ( #156, #236, ( #163 ) ) ;
#191 = VERTEX_POINT ( 'NONE', #68 ) ;
#192 = AXIS2_PLACEMENT_3D ( 'NONE', #4, #37, #18 ) ;
#193 = CC_DESIGN_SECURITY_CLASSIFICATION ( #176, ( #163 ) ) ;
#194 = CALENDAR_DATE ( 2021, 15, 10 ) ;
#195 = ADVANCED_FACE ( 'NONE', ( #170, #250 ), #54, .T. ) ;
#196 = DATE_AND_TIME ( #153, #42 ) ;
#197 = PRODUCT_DEFINITION_SHAPE ( 'NONE', 'NONE',  #47 ) ;
#198 = EDGE_LOOP ( 'NONE', ( #77 ) ) ;
#199 = AXIS2_PLACEMENT_3D ( 'NONE', #66, #231, #69 ) ;
#200 = EDGE_LOOP ( 'NONE', ( #201 ) ) ;
#201 = ORIENTED_EDGE ( 'NONE', *, *, #171, .F. ) ;
#202 = FACE_OUTER_BOUND ( 'NONE', #198, .T. ) ;
#203 = AXIS2_PLACEMENT_3D ( 'NONE', #184, #81, #145 ) ;
#204 = FACE_OUTER_BOUND ( 'NONE', #133, .T. ) ;
#205 = ORIENTED_EDGE ( 'NONE', *, *, #263, .F. ) ;
#206 = FACE_OUTER_BOUND ( 'NONE', #60, .T. ) ;
#207 = ADVANCED_FACE ( 'NONE', ( #45 ), #67, .F. ) ;
#208 = CARTESIAN_POINT ( 'NONE',  ( 6.149349010781605717E-14, 2.156901284023155364E-14, 17.61243556529828425 ) ) ;
#209 = DIRECTION ( 'NONE',  ( 6.162975822039244413E-30, -1.000000000000000000, 1.734723475976832338E-15 ) ) ;
#210 = LOCAL_TIME ( 11, 34, 31.00000000000000000, #32 ) ;
#211 = VERTEX_POINT ( 'NONE', #30 ) ;
#212 = DIRECTION ( 'NONE',  ( 0.0000000000000000000, -1.000000000000000000, 0.0000000000000000000 ) ) ;
#213 = PERSON_AND_ORGANIZATION ( #50, #46 ) ;
#214 = CONICAL_SURFACE ( 'NONE', #1, 1.200000000000001732, 0.7853981633974453924 ) ;
#215 = APPROVAL_DATE_TIME ( #93, #92 ) ;
#216 = EDGE_LOOP ( 'NONE', ( #242 ) ) ;
#217 = DATE_TIME_ROLE ( 'classification_date' ) ;
#218 = SECURITY_CLASSIFICATION_LEVEL ( 'unclassified' ) ;
#219 = APPROVAL ( #55, 'UNSPECIFIED' ) ;
#220 = LOCAL_TIME ( 11, 34, 31.00000000000000000, #31 ) ;
#221 = CALENDAR_DATE ( 2021, 15, 10 ) ;
#222 = ORIENTED_EDGE ( 'NONE', *, *, #95, .F. ) ;
#223 = PERSON_AND_ORGANIZATION ( #50, #46 ) ;
#224 = CC_DESIGN_PERSON_AND_ORGANIZATION_ASSIGNMENT ( #258, #90, ( #47 ) ) ;
#225 = CYLINDRICAL_SURFACE ( 'NONE', #58, 0.7999999999999897193 ) ;
#226 = CC_DESIGN_APPROVAL ( #92, ( #176 ) ) ;
#227 = FACE_OUTER_BOUND ( 'NONE', #57, .T. ) ;
#228 = DIRECTION ( 'NONE',  ( -4.333342374871283472E-30, 1.000000000000000000, -1.219727444046193277E-15 ) ) ;
#229 = ADVANCED_FACE ( 'NONE', ( #253, #85 ), #141, .T. ) ;
#230 = MANIFOLD_SOLID_BREP ( 'Corps-Déplacer/Copier1[2]', #5 ) ;
#231 = DIRECTION ( 'NONE',  ( 3.491481338843133355E-15, 1.224646799147354045E-15, 1.000000000000000000 ) ) ;
#232 = CIRCLE ( 'NONE', #192, 1.500000000000001554 ) ;
#233 =( NAMED_UNIT ( * ) PLANE_ANGLE_UNIT ( ) SI_UNIT ( $, .RADIAN. ) );
#234 = FACE_BOUND ( 'NONE', #240, .T. ) ;
#235 = VERTEX_POINT ( 'NONE', #12 ) ;
#236 = PERSON_AND_ORGANIZATION_ROLE ( 'creator' ) ;
#237 = LOCAL_TIME ( 11, 34, 31.00000000000000000, #238 ) ;
#238 = COORDINATED_UNIVERSAL_TIME_OFFSET ( 1, 0, .AHEAD. ) ;
#239 = APPROVAL_ROLE ( '' ) ;
#240 = EDGE_LOOP ( 'NONE', ( #162 ) ) ;
#241 = CC_DESIGN_PERSON_AND_ORGANIZATION_ASSIGNMENT ( #255, #103, ( #177 ) ) ;
#242 = ORIENTED_EDGE ( 'NONE', *, *, #164, .F. ) ;
#243 = CIRCLE ( 'NONE', #22, 1.499999999999995337 ) ;
#244 = APPLICATION_CONTEXT ( 'configuration controlled 3d designs of mechanical parts and assemblies' ) ;
#245 = ORIENTED_EDGE ( 'NONE', *, *, #127, .F. ) ;
#246 = FACE_OUTER_BOUND ( 'NONE', #137, .T. ) ;
#247 = DIRECTION ( 'NONE',  ( -3.491481338843133355E-15, -1.224646799147354045E-15, -1.000000000000000000 ) ) ;
#248 = FACE_OUTER_BOUND ( 'NONE', #36, .T. ) ;
#249 = DIRECTION ( 'NONE',  ( -3.491481338843133355E-15, 1.224646799147353207E-16, -1.000000000000000000 ) ) ;
#250 = FACE_OUTER_BOUND ( 'NONE', #168, .T. ) ;
#251 = DIRECTION ( 'NONE',  ( 4.275831445896958607E-31, 1.000000000000000000, 1.224646799147353207E-16 ) ) ;
#252 = AXIS2_PLACEMENT_3D ( 'NONE', #26, #143, #228 ) ;
#253 = FACE_BOUND ( 'NONE', #216, .T. ) ;
#254 = DIRECTION ( 'NONE',  ( 3.491481338843133355E-15, 1.224646799147354045E-15, 1.000000000000000000 ) ) ;
#255 = PERSON_AND_ORGANIZATION ( #50, #46 ) ;
#256 = ADVANCED_FACE ( 'NONE', ( #125, #234 ), #214, .T. ) ;
#257 = COORDINATED_UNIVERSAL_TIME_OFFSET ( 1, 0, .AHEAD. ) ;
#258 = PERSON_AND_ORGANIZATION ( #50, #46 ) ;
#259 = CIRCLE ( 'NONE', #59, 1.200000000000001732 ) ;
#260 = CALENDAR_DATE ( 2021, 15, 10 ) ;
#261 = PERSON_AND_ORGANIZATION ( #50, #46 ) ;
#262 = EDGE_LOOP ( 'NONE', ( #205 ) ) ;
#263 = EDGE_CURVE ( 'NONE', #51, #51, #185, .T. ) ;
ENDSEC;
END-ISO-10303-21;
