ISO-10303-21;
HEADER;
FILE_DESCRIPTION (( 'STEP AP203' ),
    '1' );
FILE_NAME ('957525.step',
    '2021-10-15T09:34:30',
    ( '' ),
    ( '' ),
    'SwSTEP 2.0',
    'SolidWorks 2019',
    '' );
FILE_SCHEMA (( 'CONFIG_CONTROL_DESIGN' ));
ENDSEC;

DATA;
#1 = AXIS2_PLACEMENT_3D ( 'NONE', #253, #249, #230 ) ;
#2 = CYLINDRICAL_SURFACE ( 'NONE', #83, 0.6499999999999914735 ) ;
#3 = MANIFOLD_SOLID_BREP ( 'Corps-Déplacer/Copier1[2]', #93 ) ;
#4 = DIRECTION ( 'NONE',  ( 3.491481338843133355E-15, -1.224646799147353207E-16, 1.000000000000000000 ) ) ;
#5 = LOCAL_TIME ( 11, 34, 30.00000000000000000, #147 ) ;
#6 = FACE_OUTER_BOUND ( 'NONE', #246, .T. ) ;
#7 = CYLINDRICAL_SURFACE ( 'NONE', #133, 0.6499999999999914735 ) ;
#8 = DIRECTION ( 'NONE',  ( 4.275831445896958607E-31, 1.000000000000000000, 1.224646799147353207E-16 ) ) ;
#9 = DESIGN_CONTEXT ( 'detailed design', #79, 'design' ) ;
#10 = CARTESIAN_POINT ( 'NONE',  ( 1.735266225405037467E-13, 1.499999999999995559, 49.70000000000000284 ) ) ;
#11 = VERTEX_POINT ( 'NONE', #14 ) ;
#12 = ADVANCED_FACE ( 'NONE', ( #180, #25 ), #259, .T. ) ;
#13 = CIRCLE ( 'NONE', #210, 1.200000000000001732 ) ;
#14 = CARTESIAN_POINT ( 'NONE',  ( 1.361677722148822166E-14, -0.6499999999999866995, 3.900000000000000799 ) ) ;
#15 = CALENDAR_DATE ( 2021, 15, 10 ) ;
#16 = PERSON_AND_ORGANIZATION ( #200, #33 ) ;
#17 = EDGE_LOOP ( 'NONE', ( #187 ) ) ;
#18 = CALENDAR_DATE ( 2021, 15, 10 ) ;
#19 = EDGE_LOOP ( 'NONE', ( #38 ) ) ;
#20 = DIRECTION ( 'NONE',  ( 4.148156803295588525E-30, -1.000000000000000000, 1.251002506714044624E-15 ) ) ;
#21 = FACE_OUTER_BOUND ( 'NONE', #85, .T. ) ;
#22 = APPROVAL ( #77, 'UNSPECIFIED' ) ;
#23 = CARTESIAN_POINT ( 'NONE',  ( 1.745740669421566678E-13, -6.123233995736766085E-15, 50.00000000000000000 ) ) ;
#24 = AXIS2_PLACEMENT_3D ( 'NONE', #32, #238, #29 ) ;
#25 = FACE_OUTER_BOUND ( 'NONE', #55, .T. ) ;
#26 = DIRECTION ( 'NONE',  ( 3.491481338843133355E-15, 1.224646799147354045E-15, 1.000000000000000000 ) ) ;
#27 = DIRECTION ( 'NONE',  ( -3.491481338843133355E-15, -1.224646799147354045E-15, -1.000000000000000000 ) ) ;
#28 = LOCAL_TIME ( 11, 34, 30.00000000000000000, #151 ) ;
#29 = DIRECTION ( 'NONE',  ( -4.218703687706983832E-30, 1.000000000000000000, -1.239088197126763788E-15 ) ) ;
#30 = VERTEX_POINT ( 'NONE', #96 ) ;
#31 = PERSON_AND_ORGANIZATION ( #200, #33 ) ;
#32 = CARTESIAN_POINT ( 'NONE',  ( 6.671675224380167379E-16, 2.340108657488934866E-16, 0.1910843729896823384 ) ) ;
#33 = ORGANIZATION ( 'UNSPECIFIED', 'UNSPECIFIED', '' ) ;
#34 = CALENDAR_DATE ( 2021, 15, 10 ) ;
#35 = DATE_AND_TIME ( #18, #28 ) ;
#36 = ADVANCED_FACE ( 'NONE', ( #92, #114 ), #2, .T. ) ;
#37 = PERSON_AND_ORGANIZATION_ROLE ( 'design_supplier' ) ;
#38 = ORIENTED_EDGE ( 'NONE', *, *, #127, .F. ) ;
#39 = CC_DESIGN_DATE_AND_TIME_ASSIGNMENT ( #35, #242, ( #95 ) ) ;
#40 = DIRECTION ( 'NONE',  ( -3.491481338843133355E-15, 1.224646799147353207E-16, -1.000000000000000000 ) ) ;
#41 = PRODUCT ( '957525', '957525', '', ( #48 ) ) ;
#42 = FACE_OUTER_BOUND ( 'NONE', #113, .T. ) ;
#43 = CC_DESIGN_PERSON_AND_ORGANIZATION_ASSIGNMENT ( #82, #80, ( #132 ) ) ;
#44 = CIRCLE ( 'NONE', #70, 1.499999999999995115 ) ;
#45 = CARTESIAN_POINT ( 'NONE',  ( 1.361677722148822009E-14, 1.124819836996384037E-32, 3.900000000000000355 ) ) ;
#46 = CYLINDRICAL_SURFACE ( 'NONE', #158, 1.499999999999995115 ) ;
#47 = ADVANCED_BREP_SHAPE_REPRESENTATION ( '957525', ( #91, #3, #252 ), #112 ) ;
#48 = MECHANICAL_CONTEXT ( 'NONE', #102, 'mechanical' ) ;
#49 = APPROVAL_PERSON_ORGANIZATION ( #110, #260, #206 ) ;
#50 = CC_DESIGN_PERSON_AND_ORGANIZATION_ASSIGNMENT ( #16, #239, ( #95 ) ) ;
#51 = FACE_OUTER_BOUND ( 'NONE', #59, .T. ) ;
#52 = SHAPE_DEFINITION_REPRESENTATION ( #173, #47 ) ;
#53 = AXIS2_PLACEMENT_3D ( 'NONE', #87, #26, #20 ) ;
#54 = EDGE_LOOP ( 'NONE', ( #105 ) ) ;
#55 = EDGE_LOOP ( 'NONE', ( #229 ) ) ;
#56 = PERSON_AND_ORGANIZATION ( #200, #33 ) ;
#57 = CLOSED_SHELL ( 'NONE', ( #179, #117, #68, #129, #12, #139 ) ) ;
#58 = CC_DESIGN_APPROVAL ( #260, ( #132 ) ) ;
#59 = EDGE_LOOP ( 'NONE', ( #76 ) ) ;
#60 = EDGE_CURVE ( 'NONE', #221, #221, #205, .T. ) ;
#61 = DIRECTION ( 'NONE',  ( 3.491481338843133355E-15, 1.224646799147354045E-15, 1.000000000000000000 ) ) ;
#62 = CARTESIAN_POINT ( 'NONE',  ( 1.745740669421566678E-13, 8.998558695971067645E-33, 50.00000000000000000 ) ) ;
#63 = CARTESIAN_POINT ( 'NONE',  ( 6.671675224380167379E-16, 2.340108657488934866E-16, 0.1910843729896823384 ) ) ;
#64 = UNCERTAINTY_MEASURE_WITH_UNIT (LENGTH_MEASURE( 1.000000000000000082E-05 ), #100, 'distance_accuracy_value', 'NONE');
#65 = DIRECTION ( 'NONE',  ( -3.491481338843133355E-15, 1.224646799147353207E-16, -1.000000000000000000 ) ) ;
#66 = CONICAL_SURFACE ( 'NONE', #103, 0.5249999999997996269, 1.221730476396032383 ) ;
#67 = CARTESIAN_POINT ( 'NONE',  ( 1.735266225405037467E-13, -6.086494591762345225E-15, 49.70000000000000284 ) ) ;
#68 = ADVANCED_FACE ( 'NONE', ( #135 ), #90, .F. ) ;
#69 = PERSON_AND_ORGANIZATION ( #200, #33 ) ;
#70 = AXIS2_PLACEMENT_3D ( 'NONE', #213, #61, #118 ) ;
#71 =( NAMED_UNIT ( * ) SI_UNIT ( $, .STERADIAN. ) SOLID_ANGLE_UNIT ( ) );
#72 = APPROVAL_STATUS ( 'not_yet_approved' ) ;
#73 = CC_DESIGN_PERSON_AND_ORGANIZATION_ASSIGNMENT ( #56, #37, ( #132 ) ) ;
#74 = PERSON_AND_ORGANIZATION ( #200, #33 ) ;
#75 = LOCAL_TIME ( 11, 34, 30.00000000000000000, #228 ) ;
#76 = ORIENTED_EDGE ( 'NONE', *, *, #89, .T. ) ;
#77 = APPROVAL_STATUS ( 'not_yet_approved' ) ;
#78 = ORIENTED_EDGE ( 'NONE', *, *, #159, .T. ) ;
#79 = APPLICATION_CONTEXT ( 'configuration controlled 3d designs of mechanical parts and assemblies' ) ;
#80 = PERSON_AND_ORGANIZATION_ROLE ( 'creator' ) ;
#81 = ORIENTED_EDGE ( 'NONE', *, *, #60, .T. ) ;
#82 = PERSON_AND_ORGANIZATION ( #200, #33 ) ;
#83 = AXIS2_PLACEMENT_3D ( 'NONE', #154, #86, #116 ) ;
#84 = ORIENTED_EDGE ( 'NONE', *, *, #127, .T. ) ;
#85 = EDGE_LOOP ( 'NONE', ( #78 ) ) ;
#86 = DIRECTION ( 'NONE',  ( -3.491481338843133355E-15, -1.224646799147354045E-15, -1.000000000000000000 ) ) ;
#87 = CARTESIAN_POINT ( 'NONE',  ( 8.992242172300055276E-16, 3.154053974441097688E-16, 0.2575480519474734886 ) ) ;
#88 = FACE_BOUND ( 'NONE', #262, .T. ) ;
#89 = EDGE_CURVE ( 'NONE', #30, #30, #44, .T. ) ;
#90 = PLANE ( 'NONE',  #220 ) ;
#91 = MANIFOLD_SOLID_BREP ( 'Corps-Déplacer/Copier1[1]', #57 ) ;
#92 = FACE_OUTER_BOUND ( 'NONE', #227, .T. ) ;
#93 = CLOSED_SHELL ( 'NONE', ( #211, #111, #143, #36 ) ) ;
#94 = CONICAL_SURFACE ( 'NONE', #236, 1.200000000000001732, 0.7853981633974453924 ) ;
#95 = PRODUCT_DEFINITION ( 'UNKNOWN', '', #132, #9 ) ;
#96 = CARTESIAN_POINT ( 'NONE',  ( 5.297360395382279792E-14, -1.499999999999976463, 15.17224318643360093 ) ) ;
#97 = DIRECTION ( 'NONE',  ( -4.148156803295588525E-30, 1.000000000000000000, -1.251002506714044624E-15 ) ) ;
#98 = LOCAL_TIME ( 11, 34, 30.00000000000000000, #190 ) ;
#99 = PRODUCT_RELATED_PRODUCT_CATEGORY ( 'detail', '', ( #41 ) ) ;
#100 =( LENGTH_UNIT ( ) NAMED_UNIT ( * ) SI_UNIT ( .MILLI., .METRE. ) );
#101 = VERTEX_POINT ( 'NONE', #184 ) ;
#102 = APPLICATION_CONTEXT ( 'configuration controlled 3d designs of mechanical parts and assemblies' ) ;
#103 = AXIS2_PLACEMENT_3D ( 'NONE', #63, #197, #138 ) ;
#104 = DATE_AND_TIME ( #166, #98 ) ;
#105 = ORIENTED_EDGE ( 'NONE', *, *, #172, .F. ) ;
#106 = EDGE_CURVE ( 'NONE', #125, #125, #13, .T. ) ;
#107 = DATE_AND_TIME ( #34, #185 ) ;
#108 = ORIENTED_EDGE ( 'NONE', *, *, #159, .F. ) ;
#109 = EDGE_LOOP ( 'NONE', ( #191 ) ) ;
#110 = PERSON_AND_ORGANIZATION ( #200, #33 ) ;
#111 = ADVANCED_FACE ( 'NONE', ( #155 ), #66, .T. ) ;
#112 =( GEOMETRIC_REPRESENTATION_CONTEXT ( 3 ) GLOBAL_UNCERTAINTY_ASSIGNED_CONTEXT ( ( #64 ) ) GLOBAL_UNIT_ASSIGNED_CONTEXT ( ( #100, #160, #71 ) ) REPRESENTATION_CONTEXT ( 'NONE', 'WORKASPACE' ) );
#113 = EDGE_LOOP ( 'NONE', ( #131 ) ) ;
#114 = FACE_OUTER_BOUND ( 'NONE', #54, .T. ) ;
#115 = CARTESIAN_POINT ( 'NONE',  ( -3.491481338843130200E-15, -1.224646799147353059E-15, -0.9999999999999991118 ) ) ;
#116 = DIRECTION ( 'NONE',  ( -4.740750632337873311E-30, 1.000000000000000000, -1.334402673828330596E-15 ) ) ;
#117 = ADVANCED_FACE ( 'NONE', ( #6, #88 ), #94, .T. ) ;
#118 = DIRECTION ( 'NONE',  ( 4.108650548026116232E-30, -1.000000000000000000, 1.156482317317875078E-15 ) ) ;
#119 = PLANE ( 'NONE',  #124 ) ;
#120 = FACE_OUTER_BOUND ( 'NONE', #19, .T. ) ;
#121 = VERTEX_POINT ( 'NONE', #161 ) ;
#122 = CARTESIAN_POINT ( 'NONE',  ( 1.745740669421566678E-13, 1.199999999999995515, 50.00000000000000000 ) ) ;
#123 = DIRECTION ( 'NONE',  ( 3.491481338843133355E-15, -1.224646799147353207E-16, 1.000000000000000000 ) ) ;
#124 = AXIS2_PLACEMENT_3D ( 'NONE', #45, #4, #231 ) ;
#125 = VERTEX_POINT ( 'NONE', #122 ) ;
#126 = APPROVAL_DATE_TIME ( #148, #22 ) ;
#127 = EDGE_CURVE ( 'NONE', #201, #201, #241, .T. ) ;
#128 = CIRCLE ( 'NONE', #24, 0.5249999999997996269 ) ;
#129 = ADVANCED_FACE ( 'NONE', ( #21, #178 ), #7, .T. ) ;
#130 = DATE_TIME_ROLE ( 'classification_date' ) ;
#131 = ORIENTED_EDGE ( 'NONE', *, *, #234, .T. ) ;
#132 = PRODUCT_DEFINITION_FORMATION_WITH_SPECIFIED_SOURCE ( 'ANY', '', #41, .NOT_KNOWN. ) ;
#133 = AXIS2_PLACEMENT_3D ( 'NONE', #115, #192, #216 ) ;
#134 = DIRECTION ( 'NONE',  ( 3.491481338843133355E-15, 1.224646799147354045E-15, 1.000000000000000000 ) ) ;
#135 = FACE_OUTER_BOUND ( 'NONE', #156, .T. ) ;
#136 = CARTESIAN_POINT ( 'NONE',  ( 8.992242172300055276E-16, 3.154053974441097688E-16, 0.2575480519474734886 ) ) ;
#137 = FACE_BOUND ( 'NONE', #209, .T. ) ;
#138 = DIRECTION ( 'NONE',  ( 4.218703687706983832E-30, -1.000000000000000000, 1.239088197126763788E-15 ) ) ;
#139 = ADVANCED_FACE ( 'NONE', ( #42 ), #119, .F. ) ;
#140 = DIRECTION ( 'NONE',  ( 1.000000000000000000, 0.0000000000000000000, 0.0000000000000000000 ) ) ;
#141 = CC_DESIGN_SECURITY_CLASSIFICATION ( #215, ( #132 ) ) ;
#142 = PLANE ( 'NONE',  #225 ) ;
#143 = ADVANCED_FACE ( 'NONE', ( #137, #247 ), #240, .T. ) ;
#144 = APPLICATION_PROTOCOL_DEFINITION ( 'international standard', 'config_control_design', 1994, #79 ) ;
#145 = APPROVAL_STATUS ( 'not_yet_approved' ) ;
#146 = CC_DESIGN_PERSON_AND_ORGANIZATION_ASSIGNMENT ( #69, #162, ( #41 ) ) ;
#147 = COORDINATED_UNIVERSAL_TIME_OFFSET ( 1, 0, .AHEAD. ) ;
#148 = DATE_AND_TIME ( #244, #5 ) ;
#149 = AXIS2_PLACEMENT_3D ( 'NONE', #212, #181, #196 ) ;
#150 = CC_DESIGN_DATE_AND_TIME_ASSIGNMENT ( #104, #130, ( #215 ) ) ;
#151 = COORDINATED_UNIVERSAL_TIME_OFFSET ( 1, 0, .AHEAD. ) ;
#152 = EDGE_LOOP ( 'NONE', ( #108 ) ) ;
#153 = CC_DESIGN_APPROVAL ( #22, ( #215 ) ) ;
#154 = CARTESIAN_POINT ( 'NONE',  ( -3.491481338843130200E-15, -1.224646799147353059E-15, -0.9999999999999991118 ) ) ;
#155 = FACE_OUTER_BOUND ( 'NONE', #109, .T. ) ;
#156 = EDGE_LOOP ( 'NONE', ( #243 ) ) ;
#157 = DIRECTION ( 'NONE',  ( 0.0000000000000000000, 1.000000000000000000, 0.0000000000000000000 ) ) ;
#158 = AXIS2_PLACEMENT_3D ( 'NONE', #165, #218, #219 ) ;
#159 = EDGE_CURVE ( 'NONE', #121, #121, #232, .T. ) ;
#160 =( NAMED_UNIT ( * ) PLANE_ANGLE_UNIT ( ) SI_UNIT ( $, .RADIAN. ) );
#161 = CARTESIAN_POINT ( 'NONE',  ( 4.189777606611760026E-14, 0.6499999999999984679, 12.00000000000000000 ) ) ;
#162 = PERSON_AND_ORGANIZATION_ROLE ( 'design_owner' ) ;
#163 = AXIS2_PLACEMENT_3D ( 'NONE', #250, #134, #233 ) ;
#164 = DIRECTION ( 'NONE',  ( -4.275831445896958607E-31, -1.000000000000000000, -1.224646799147353207E-16 ) ) ;
#165 = CARTESIAN_POINT ( 'NONE',  ( 0.0000000000000000000, 0.0000000000000000000, 0.0000000000000000000 ) ) ;
#166 = CALENDAR_DATE ( 2021, 15, 10 ) ;
#167 = APPROVAL_PERSON_ORGANIZATION ( #169, #22, #245 ) ;
#168 = EDGE_LOOP ( 'NONE', ( #81 ) ) ;
#169 = PERSON_AND_ORGANIZATION ( #200, #33 ) ;
#170 = ORIENTED_EDGE ( 'NONE', *, *, #237, .F. ) ;
#171 = DATE_AND_TIME ( #15, #75 ) ;
#172 = EDGE_CURVE ( 'NONE', #223, #223, #248, .T. ) ;
#173 = PRODUCT_DEFINITION_SHAPE ( 'NONE', 'NONE',  #95 ) ;
#174 = ORIENTED_EDGE ( 'NONE', *, *, #60, .F. ) ;
#175 = DIRECTION ( 'NONE',  ( -3.491481338843133355E-15, 1.224646799147353207E-16, -1.000000000000000000 ) ) ;
#176 = CC_DESIGN_APPROVAL ( #195, ( #95 ) ) ;
#177 = ORIENTED_EDGE ( 'NONE', *, *, #106, .T. ) ;
#178 = FACE_OUTER_BOUND ( 'NONE', #17, .T. ) ;
#179 = ADVANCED_FACE ( 'NONE', ( #51, #254 ), #46, .T. ) ;
#180 = FACE_BOUND ( 'NONE', #152, .T. ) ;
#181 = DIRECTION ( 'NONE',  ( -3.491481338843133355E-15, 1.224646799147353207E-16, -1.000000000000000000 ) ) ;
#182 = AXIS2_PLACEMENT_3D ( 'NONE', #257, #255, #202 ) ;
#183 = APPLICATION_PROTOCOL_DEFINITION ( 'international standard', 'config_control_design', 1994, #102 ) ;
#184 = CARTESIAN_POINT ( 'NONE',  ( 6.671675224380145686E-16, 0.5249999999997998490, 0.1910843729896816723 ) ) ;
#185 = LOCAL_TIME ( 11, 34, 30.00000000000000000, #186 ) ;
#186 = COORDINATED_UNIVERSAL_TIME_OFFSET ( 1, 0, .AHEAD. ) ;
#187 = ORIENTED_EDGE ( 'NONE', *, *, #234, .F. ) ;
#188 = EDGE_LOOP ( 'NONE', ( #207 ) ) ;
#189 = CC_DESIGN_PERSON_AND_ORGANIZATION_ASSIGNMENT ( #74, #224, ( #215 ) ) ;
#190 = COORDINATED_UNIVERSAL_TIME_OFFSET ( 1, 0, .AHEAD. ) ;
#191 = ORIENTED_EDGE ( 'NONE', *, *, #237, .T. ) ;
#192 = DIRECTION ( 'NONE',  ( -3.491481338843133355E-15, -1.224646799147354045E-15, -1.000000000000000000 ) ) ;
#193 = AXIS2_PLACEMENT_3D ( 'NONE', #67, #40, #214 ) ;
#194 = CARTESIAN_POINT ( 'NONE',  ( 1.745740669421566678E-13, -6.123233995736766085E-15, 50.00000000000000000 ) ) ;
#195 = APPROVAL ( #72, 'UNSPECIFIED' ) ;
#196 = DIRECTION ( 'NONE',  ( 0.0000000000000000000, -1.000000000000000000, 0.0000000000000000000 ) ) ;
#197 = DIRECTION ( 'NONE',  ( 3.491481338843133355E-15, 1.224646799147354045E-15, 1.000000000000000000 ) ) ;
#198 = CARTESIAN_POINT ( 'NONE',  ( 1.361677722148822009E-14, 1.124819836996384037E-32, 3.900000000000000355 ) ) ;
#199 = APPROVAL_PERSON_ORGANIZATION ( #31, #195, #226 ) ;
#200 = PERSON ( 'UNSPECIFIED', 'UNSPECIFIED', 'UNSPECIFIED', ('UNSPECIFIED'), ('UNSPECIFIED'), ('UNSPECIFIED') ) ;
#201 = VERTEX_POINT ( 'NONE', #258 ) ;
#202 = DIRECTION ( 'NONE',  ( 0.0000000000000000000, -1.000000000000000000, 0.0000000000000000000 ) ) ;
#203 = AXIS2_PLACEMENT_3D ( 'NONE', #136, #27, #97 ) ;
#204 = CARTESIAN_POINT ( 'NONE',  ( 8.992242172300027666E-16, 0.6499999999999998002, 0.2575480519474726560 ) ) ;
#205 = CIRCLE ( 'NONE', #193, 1.500000000000001554 ) ;
#206 = APPROVAL_ROLE ( '' ) ;
#207 = ORIENTED_EDGE ( 'NONE', *, *, #172, .T. ) ;
#208 = SECURITY_CLASSIFICATION_LEVEL ( 'unclassified' ) ;
#209 = EDGE_LOOP ( 'NONE', ( #170 ) ) ;
#210 = AXIS2_PLACEMENT_3D ( 'NONE', #194, #175, #217 ) ;
#211 = ADVANCED_FACE ( 'NONE', ( #120 ), #142, .T. ) ;
#212 = CARTESIAN_POINT ( 'NONE',  ( 1.361677722148822166E-14, 4.776122516674681822E-15, 3.900000000000000799 ) ) ;
#213 = CARTESIAN_POINT ( 'NONE',  ( 5.297360395382279161E-14, 1.858063905415115795E-14, 15.17224318643359915 ) ) ;
#214 = DIRECTION ( 'NONE',  ( 0.0000000000000000000, 1.000000000000000000, 0.0000000000000000000 ) ) ;
#215 = SECURITY_CLASSIFICATION ( '', '', #208 ) ;
#216 = DIRECTION ( 'NONE',  ( -4.740750632337873311E-30, 1.000000000000000000, -1.334402673828330596E-15 ) ) ;
#217 = DIRECTION ( 'NONE',  ( 0.0000000000000000000, 1.000000000000000000, 0.0000000000000000000 ) ) ;
#218 = DIRECTION ( 'NONE',  ( -3.491481338843133355E-15, 1.224646799147353207E-16, -1.000000000000000000 ) ) ;
#219 = DIRECTION ( 'NONE',  ( 4.275831445896958607E-31, 1.000000000000000000, 1.224646799147353207E-16 ) ) ;
#220 = AXIS2_PLACEMENT_3D ( 'NONE', #62, #251, #8 ) ;
#221 = VERTEX_POINT ( 'NONE', #10 ) ;
#222 = CARTESIAN_POINT ( 'NONE',  ( 0.0000000000000000000, 0.0000000000000000000, 0.0000000000000000000 ) ) ;
#223 = VERTEX_POINT ( 'NONE', #204 ) ;
#224 = PERSON_AND_ORGANIZATION_ROLE ( 'classification_officer' ) ;
#225 = AXIS2_PLACEMENT_3D ( 'NONE', #198, #123, #164 ) ;
#226 = APPROVAL_ROLE ( '' ) ;
#227 = EDGE_LOOP ( 'NONE', ( #84 ) ) ;
#228 = COORDINATED_UNIVERSAL_TIME_OFFSET ( 1, 0, .AHEAD. ) ;
#229 = ORIENTED_EDGE ( 'NONE', *, *, #89, .F. ) ;
#230 = DIRECTION ( 'NONE',  ( 0.0000000000000000000, 1.000000000000000000, 0.0000000000000000000 ) ) ;
#231 = DIRECTION ( 'NONE',  ( -4.275831445896958607E-31, -1.000000000000000000, -1.224646799147353207E-16 ) ) ;
#232 = CIRCLE ( 'NONE', #1, 0.6499999999999837019 ) ;
#233 = DIRECTION ( 'NONE',  ( 6.162975822039234604E-30, -1.000000000000000000, 1.734723475976829577E-15 ) ) ;
#234 = EDGE_CURVE ( 'NONE', #11, #11, #256, .T. ) ;
#235 = DIRECTION ( 'NONE',  ( 0.0000000000000000000, 0.0000000000000000000, 1.000000000000000000 ) ) ;
#236 = AXIS2_PLACEMENT_3D ( 'NONE', #23, #65, #157 ) ;
#237 = EDGE_CURVE ( 'NONE', #101, #101, #128, .T. ) ;
#238 = DIRECTION ( 'NONE',  ( -3.491481338843133355E-15, -1.224646799147354045E-15, -1.000000000000000000 ) ) ;
#239 = PERSON_AND_ORGANIZATION_ROLE ( 'creator' ) ;
#240 = CONICAL_SURFACE ( 'NONE', #53, 0.6499999999999994671, 1.082104136236484049 ) ;
#241 = CIRCLE ( 'NONE', #149, 0.6499999999999914735 ) ;
#242 = DATE_TIME_ROLE ( 'creation_date' ) ;
#243 = ORIENTED_EDGE ( 'NONE', *, *, #106, .F. ) ;
#244 = CALENDAR_DATE ( 2021, 15, 10 ) ;
#245 = APPROVAL_ROLE ( '' ) ;
#246 = EDGE_LOOP ( 'NONE', ( #174 ) ) ;
#247 = FACE_OUTER_BOUND ( 'NONE', #188, .T. ) ;
#248 = CIRCLE ( 'NONE', #203, 0.6499999999999994671 ) ;
#249 = DIRECTION ( 'NONE',  ( -3.491481338843133355E-15, -1.224646799147354045E-15, -1.000000000000000000 ) ) ;
#250 = CARTESIAN_POINT ( 'NONE',  ( 5.948879682894313899E-14, 2.086586109202333278E-14, 17.03826859021796736 ) ) ;
#251 = DIRECTION ( 'NONE',  ( -3.491481338843133355E-15, 1.224646799147353207E-16, -1.000000000000000000 ) ) ;
#252 = AXIS2_PLACEMENT_3D ( 'NONE', #222, #235, #140 ) ;
#253 = CARTESIAN_POINT ( 'NONE',  ( 4.189777606611760026E-14, 1.469576158976824933E-14, 12.00000000000000000 ) ) ;
#254 = FACE_OUTER_BOUND ( 'NONE', #168, .T. ) ;
#255 = DIRECTION ( 'NONE',  ( -3.491481338843133355E-15, 1.224646799147353207E-16, -1.000000000000000000 ) ) ;
#256 = CIRCLE ( 'NONE', #182, 0.6499999999999914735 ) ;
#257 = CARTESIAN_POINT ( 'NONE',  ( 1.361677722148822166E-14, 4.776122516674681822E-15, 3.900000000000000799 ) ) ;
#258 = CARTESIAN_POINT ( 'NONE',  ( 1.361677722148822166E-14, -0.6499999999999866995, 3.900000000000000799 ) ) ;
#259 = CONICAL_SURFACE ( 'NONE', #163, 1.999999999999974021, 0.2617993877991485197 ) ;
#260 = APPROVAL ( #145, 'UNSPECIFIED' ) ;
#261 = APPROVAL_DATE_TIME ( #171, #260 ) ;
#262 = EDGE_LOOP ( 'NONE', ( #177 ) ) ;
#263 = APPROVAL_DATE_TIME ( #107, #195 ) ;
ENDSEC;
END-ISO-10303-21;
