ISO-10303-21;
HEADER;
FILE_DESCRIPTION (( 'STEP AP203' ),
    '1' );
FILE_NAME ('957524.step',
    '2021-10-15T09:34:29',
    ( '' ),
    ( '' ),
    'SwSTEP 2.0',
    'SolidWorks 2019',
    '' );
FILE_SCHEMA (( 'CONFIG_CONTROL_DESIGN' ));
ENDSEC;

DATA;
#1 = DIRECTION ( 'NONE',  ( 4.335426714639588762E-30, -1.000000000000000000, 1.220314133533934103E-15 ) ) ;
#2 = FACE_OUTER_BOUND ( 'NONE', #249, .T. ) ;
#3 = CARTESIAN_POINT ( 'NONE',  ( 4.031071717347430368E-14, -1.499999999999980682, 11.54544826719046569 ) ) ;
#4 = CARTESIAN_POINT ( 'NONE',  ( 0.0000000000000000000, 0.0000000000000000000, 0.0000000000000000000 ) ) ;
#5 = CONICAL_SURFACE ( 'NONE', #120, 0.4442307692305996203, 1.221730476396032161 ) ;
#6 = LOCAL_TIME ( 11, 34, 29.00000000000000000, #156 ) ;
#7 = PLANE ( 'NONE',  #127 ) ;
#8 = DATE_AND_TIME ( #58, #157 ) ;
#9 = CARTESIAN_POINT ( 'NONE',  ( 7.608820299638504290E-16, 2.668814901450159924E-16, 0.2179252747247851230 ) ) ;
#10 = PRODUCT_DEFINITION_FORMATION_WITH_SPECIFIED_SOURCE ( 'ANY', '', #140, .NOT_KNOWN. ) ;
#11 = EDGE_CURVE ( 'NONE', #239, #239, #99, .T. ) ;
#12 = CALENDAR_DATE ( 2021, 15, 10 ) ;
#13 = PERSON_AND_ORGANIZATION_ROLE ( 'classification_officer' ) ;
#14 = CIRCLE ( 'NONE', #82, 0.5499999999999944933 ) ;
#15 = AXIS2_PLACEMENT_3D ( 'NONE', #4, #172, #187 ) ;
#16 = EDGE_LOOP ( 'NONE', ( #258 ) ) ;
#17 = AXIS2_PLACEMENT_3D ( 'NONE', #186, #263, #171 ) ;
#18 = EDGE_CURVE ( 'NONE', #74, #74, #158, .T. ) ;
#19 =( LENGTH_UNIT ( ) NAMED_UNIT ( * ) SI_UNIT ( .MILLI., .METRE. ) );
#20 = EDGE_LOOP ( 'NONE', ( #161 ) ) ;
#21 = DIRECTION ( 'NONE',  ( 3.491481338843133355E-15, 1.224646799147354045E-15, 1.000000000000000000 ) ) ;
#22 = FACE_OUTER_BOUND ( 'NONE', #41, .T. ) ;
#23 = DIRECTION ( 'NONE',  ( -4.202028969572193310E-30, 1.000000000000000000, -1.182766006347834941E-15 ) ) ;
#24 = CARTESIAN_POINT ( 'NONE',  ( -3.491481338843130200E-15, -1.224646799147353059E-15, -0.9999999999999991118 ) ) ;
#25 = ORIENTED_EDGE ( 'NONE', *, *, #110, .F. ) ;
#26 = PERSON ( 'UNSPECIFIED', 'UNSPECIFIED', 'UNSPECIFIED', ('UNSPECIFIED'), ('UNSPECIFIED'), ('UNSPECIFIED') ) ;
#27 = FACE_OUTER_BOUND ( 'NONE', #236, .T. ) ;
#28 = UNCERTAINTY_MEASURE_WITH_UNIT (LENGTH_MEASURE( 1.000000000000000082E-05 ), #19, 'distance_accuracy_value', 'NONE');
#29 = AXIS2_PLACEMENT_3D ( 'NONE', #9, #49, #73 ) ;
#30 = CARTESIAN_POINT ( 'NONE',  ( 5.645263651398606884E-16, 1.980091940952177439E-16, 0.1616867771451159230 ) ) ;
#31 = PERSON_AND_ORGANIZATION_ROLE ( 'creator' ) ;
#32 = APPROVAL_ROLE ( '' ) ;
#33 = MANIFOLD_SOLID_BREP ( 'Corps-Déplacer/Copier1[2]', #178 ) ;
#34 = APPROVAL_DATE_TIME ( #101, #37 ) ;
#35 = AXIS2_PLACEMENT_3D ( 'NONE', #190, #146, #70 ) ;
#36 = ORIENTED_EDGE ( 'NONE', *, *, #216, .T. ) ;
#37 = APPROVAL ( #256, 'UNSPECIFIED' ) ;
#38 = ADVANCED_FACE ( 'NONE', ( #229, #189 ), #194, .T. ) ;
#39 = ORIENTED_EDGE ( 'NONE', *, *, #102, .T. ) ;
#40 = CARTESIAN_POINT ( 'NONE',  ( 1.745740669421566678E-13, 8.998558695971067645E-33, 50.00000000000000000 ) ) ;
#41 = EDGE_LOOP ( 'NONE', ( #25 ) ) ;
#42 = DIRECTION ( 'NONE',  ( -3.491481338843133355E-15, 1.224646799147353207E-16, -1.000000000000000000 ) ) ;
#43 = APPLICATION_PROTOCOL_DEFINITION ( 'international standard', 'config_control_design', 1994, #159 ) ;
#44 = DIRECTION ( 'NONE',  ( 3.491481338843133355E-15, 1.224646799147354045E-15, 1.000000000000000000 ) ) ;
#45 = CC_DESIGN_APPROVAL ( #104, ( #164 ) ) ;
#46 = APPROVAL_PERSON_ORGANIZATION ( #98, #64, #32 ) ;
#47 = LOCAL_TIME ( 11, 34, 29.00000000000000000, #213 ) ;
#48 = PERSON_AND_ORGANIZATION_ROLE ( 'design_owner' ) ;
#49 = DIRECTION ( 'NONE',  ( -3.491481338843133355E-15, -1.224646799147354045E-15, -1.000000000000000000 ) ) ;
#50 = APPROVAL_STATUS ( 'not_yet_approved' ) ;
#51 = DIRECTION ( 'NONE',  ( 0.0000000000000000000, -1.000000000000000000, 0.0000000000000000000 ) ) ;
#52 = EDGE_CURVE ( 'NONE', #66, #66, #197, .T. ) ;
#53 = COORDINATED_UNIVERSAL_TIME_OFFSET ( 1, 0, .AHEAD. ) ;
#54 = FACE_BOUND ( 'NONE', #62, .T. ) ;
#55 = CONICAL_SURFACE ( 'NONE', #95, 1.200000000000001732, 0.7853981633974453924 ) ;
#56 = APPROVAL_PERSON_ORGANIZATION ( #184, #104, #130 ) ;
#57 = CARTESIAN_POINT ( 'NONE',  ( 1.745740669421566678E-13, -6.123233995736766085E-15, 50.00000000000000000 ) ) ;
#58 = CALENDAR_DATE ( 2021, 15, 10 ) ;
#59 = CC_DESIGN_PERSON_AND_ORGANIZATION_ASSIGNMENT ( #234, #116, ( #10 ) ) ;
#60 = PERSON_AND_ORGANIZATION ( #26, #169 ) ;
#61 = APPROVAL_ROLE ( '' ) ;
#62 = EDGE_LOOP ( 'NONE', ( #121 ) ) ;
#63 = EDGE_LOOP ( 'NONE', ( #39 ) ) ;
#64 = APPROVAL ( #181, 'UNSPECIFIED' ) ;
#65 = EDGE_LOOP ( 'NONE', ( #83 ) ) ;
#66 = VERTEX_POINT ( 'NONE', #128 ) ;
#67 = APPLICATION_CONTEXT ( 'configuration controlled 3d designs of mechanical parts and assemblies' ) ;
#68 = APPROVAL_DATE_TIME ( #241, #104 ) ;
#69 = DIRECTION ( 'NONE',  ( 3.491481338843133355E-15, -1.224646799147353207E-16, 1.000000000000000000 ) ) ;
#70 = DIRECTION ( 'NONE',  ( 1.000000000000000000, 0.0000000000000000000, 0.0000000000000000000 ) ) ;
#71 = FACE_BOUND ( 'NONE', #217, .T. ) ;
#72 = PLANE ( 'NONE',  #218 ) ;
#73 = DIRECTION ( 'NONE',  ( -4.202028969572154073E-30, 1.000000000000000000, -1.232047923278983136E-15 ) ) ;
#74 = VERTEX_POINT ( 'NONE', #185 ) ;
#75 = DIRECTION ( 'NONE',  ( 3.491481338843133355E-15, 1.224646799147354045E-15, 1.000000000000000000 ) ) ;
#76 = ADVANCED_FACE ( 'NONE', ( #2, #97 ), #129, .T. ) ;
#77 = DIRECTION ( 'NONE',  ( 0.0000000000000000000, 1.000000000000000000, 0.0000000000000000000 ) ) ;
#78 = PERSON_AND_ORGANIZATION_ROLE ( 'design_supplier' ) ;
#79 = CALENDAR_DATE ( 2021, 15, 10 ) ;
#80 = AXIS2_PLACEMENT_3D ( 'NONE', #125, #21, #107 ) ;
#81 = CC_DESIGN_PERSON_AND_ORGANIZATION_ASSIGNMENT ( #196, #78, ( #10 ) ) ;
#82 = AXIS2_PLACEMENT_3D ( 'NONE', #226, #42, #51 ) ;
#83 = ORIENTED_EDGE ( 'NONE', *, *, #110, .T. ) ;
#84 = EDGE_LOOP ( 'NONE', ( #139 ) ) ;
#85 = CARTESIAN_POINT ( 'NONE',  ( 1.735266225405037467E-13, 1.499999999999995559, 49.70000000000000284 ) ) ;
#86 = EDGE_LOOP ( 'NONE', ( #138 ) ) ;
#87 = AXIS2_PLACEMENT_3D ( 'NONE', #24, #143, #111 ) ;
#88 = VERTEX_POINT ( 'NONE', #85 ) ;
#89 = DIRECTION ( 'NONE',  ( -3.491481338843133355E-15, 1.224646799147353207E-16, -1.000000000000000000 ) ) ;
#90 = VERTEX_POINT ( 'NONE', #3 ) ;
#91 = DIRECTION ( 'NONE',  ( 0.0000000000000000000, 1.000000000000000000, 0.0000000000000000000 ) ) ;
#92 = CC_DESIGN_PERSON_AND_ORGANIZATION_ASSIGNMENT ( #60, #13, ( #117 ) ) ;
#93 = CARTESIAN_POINT ( 'NONE',  ( 5.645263651398587162E-16, 0.4442307692305998978, 0.1616867771451153679 ) ) ;
#94 = CARTESIAN_POINT ( 'NONE',  ( 1.745740669421566678E-13, -6.123233995736766085E-15, 50.00000000000000000 ) ) ;
#95 = AXIS2_PLACEMENT_3D ( 'NONE', #57, #232, #151 ) ;
#96 = CARTESIAN_POINT ( 'NONE',  ( 2.793185071074506684E-14, 9.797174393178832363E-15, 8.000000000000000000 ) ) ;
#97 = FACE_OUTER_BOUND ( 'NONE', #20, .T. ) ;
#98 = PERSON_AND_ORGANIZATION ( #26, #169 ) ;
#99 = CIRCLE ( 'NONE', #255, 0.4442307692305996758 ) ;
#100 = CC_DESIGN_SECURITY_CLASSIFICATION ( #117, ( #10 ) ) ;
#101 = DATE_AND_TIME ( #12, #6 ) ;
#102 = EDGE_CURVE ( 'NONE', #88, #88, #237, .T. ) ;
#103 = ORIENTED_EDGE ( 'NONE', *, *, #209, .T. ) ;
#104 = APPROVAL ( #50, 'UNSPECIFIED' ) ;
#105 = PERSON_AND_ORGANIZATION ( #26, #169 ) ;
#106 = DIRECTION ( 'NONE',  ( 3.491481338843133355E-15, 1.224646799147354045E-15, 1.000000000000000000 ) ) ;
#107 = DIRECTION ( 'NONE',  ( 4.108650548026116933E-30, -1.000000000000000000, 1.156482317317875275E-15 ) ) ;
#108 =( NAMED_UNIT ( * ) PLANE_ANGLE_UNIT ( ) SI_UNIT ( $, .RADIAN. ) );
#109 = CARTESIAN_POINT ( 'NONE',  ( 1.152188841818234165E-14, 1.124819836996383900E-32, 3.300000000000000266 ) ) ;
#110 = EDGE_CURVE ( 'NONE', #203, #203, #240, .T. ) ;
#111 = DIRECTION ( 'NONE',  ( -4.202028969572193310E-30, 1.000000000000000000, -1.182766006347834941E-15 ) ) ;
#112 = DIRECTION ( 'NONE',  ( -3.491481338843133355E-15, -1.224646799147354045E-15, -1.000000000000000000 ) ) ;
#113 = FACE_BOUND ( 'NONE', #165, .T. ) ;
#114 = CLOSED_SHELL ( 'NONE', ( #38, #227, #259, #76, #142, #182 ) ) ;
#115 = DIRECTION ( 'NONE',  ( -4.275831445896958607E-31, -1.000000000000000000, -1.224646799147353207E-16 ) ) ;
#116 = PERSON_AND_ORGANIZATION_ROLE ( 'creator' ) ;
#117 = SECURITY_CLASSIFICATION ( '', '', #254 ) ;
#118 = SHAPE_DEFINITION_REPRESENTATION ( #160, #175 ) ;
#119 = MANIFOLD_SOLID_BREP ( 'Corps-Déplacer/Copier1[1]', #114 ) ;
#120 = AXIS2_PLACEMENT_3D ( 'NONE', #250, #106, #1 ) ;
#121 = ORIENTED_EDGE ( 'NONE', *, *, #11, .F. ) ;
#122 = EDGE_LOOP ( 'NONE', ( #103 ) ) ;
#123 = CARTESIAN_POINT ( 'NONE',  ( 7.608820299638480625E-16, 0.5499999999999998224, 0.2179252747247844568 ) ) ;
#124 = PERSON_AND_ORGANIZATION ( #26, #169 ) ;
#125 = CARTESIAN_POINT ( 'NONE',  ( 4.031071717347429737E-14, 1.413909626513616333E-14, 11.54544826719046391 ) ) ;
#126 = CC_DESIGN_DATE_AND_TIME_ASSIGNMENT ( #215, #252, ( #117 ) ) ;
#127 = AXIS2_PLACEMENT_3D ( 'NONE', #109, #69, #145 ) ;
#128 = CARTESIAN_POINT ( 'NONE',  ( 1.745740669421566678E-13, 1.199999999999995515, 50.00000000000000000 ) ) ;
#129 = CYLINDRICAL_SURFACE ( 'NONE', #167, 0.5499999999999944933 ) ;
#130 = APPROVAL_ROLE ( '' ) ;
#131 = DIRECTION ( 'NONE',  ( 3.491481338843133355E-15, -1.224646799147353207E-16, 1.000000000000000000 ) ) ;
#132 = DESIGN_CONTEXT ( 'detailed design', #67, 'design' ) ;
#133 = DIRECTION ( 'NONE',  ( 4.202028969572153373E-30, -1.000000000000000000, 1.232047923278982939E-15 ) ) ;
#134 = AXIS2_PLACEMENT_3D ( 'NONE', #176, #44, #173 ) ;
#135 = CC_DESIGN_PERSON_AND_ORGANIZATION_ASSIGNMENT ( #124, #31, ( #164 ) ) ;
#136 = ADVANCED_FACE ( 'NONE', ( #27 ), #7, .T. ) ;
#137 = CIRCLE ( 'NONE', #17, 0.5499999999999944933 ) ;
#138 = ORIENTED_EDGE ( 'NONE', *, *, #209, .F. ) ;
#139 = ORIENTED_EDGE ( 'NONE', *, *, #191, .T. ) ;
#140 = PRODUCT ( '957524', '957524', '', ( #168 ) ) ;
#141 = ORIENTED_EDGE ( 'NONE', *, *, #18, .F. ) ;
#142 = ADVANCED_FACE ( 'NONE', ( #113, #242 ), #174, .T. ) ;
#143 = DIRECTION ( 'NONE',  ( -3.491481338843133355E-15, -1.224646799147354045E-15, -1.000000000000000000 ) ) ;
#144 = FACE_OUTER_BOUND ( 'NONE', #65, .T. ) ;
#145 = DIRECTION ( 'NONE',  ( -4.275831445896958607E-31, -1.000000000000000000, -1.224646799147353207E-16 ) ) ;
#146 = DIRECTION ( 'NONE',  ( 0.0000000000000000000, 0.0000000000000000000, 1.000000000000000000 ) ) ;
#147 = FACE_OUTER_BOUND ( 'NONE', #238, .T. ) ;
#148 = APPLICATION_PROTOCOL_DEFINITION ( 'international standard', 'config_control_design', 1994, #67 ) ;
#149 = CARTESIAN_POINT ( 'NONE',  ( 1.152188841818234165E-14, 1.124819836996383900E-32, 3.300000000000000266 ) ) ;
#150 = CARTESIAN_POINT ( 'NONE',  ( -3.491481338843130200E-15, -1.224646799147353059E-15, -0.9999999999999991118 ) ) ;
#151 = DIRECTION ( 'NONE',  ( 0.0000000000000000000, 1.000000000000000000, 0.0000000000000000000 ) ) ;
#152 = AXIS2_PLACEMENT_3D ( 'NONE', #96, #211, #205 ) ;
#153 =( GEOMETRIC_REPRESENTATION_CONTEXT ( 3 ) GLOBAL_UNCERTAINTY_ASSIGNED_CONTEXT ( ( #28 ) ) GLOBAL_UNIT_ASSIGNED_CONTEXT ( ( #19, #108, #206 ) ) REPRESENTATION_CONTEXT ( 'NONE', 'WORKASPACE' ) );
#154 = ADVANCED_FACE ( 'NONE', ( #54, #144 ), #193, .T. ) ;
#155 = COORDINATED_UNIVERSAL_TIME_OFFSET ( 1, 0, .AHEAD. ) ;
#156 = COORDINATED_UNIVERSAL_TIME_OFFSET ( 1, 0, .AHEAD. ) ;
#157 = LOCAL_TIME ( 11, 34, 29.00000000000000000, #53 ) ;
#158 = CIRCLE ( 'NONE', #152, 0.5499999999999891642 ) ;
#159 = APPLICATION_CONTEXT ( 'configuration controlled 3d designs of mechanical parts and assemblies' ) ;
#160 = PRODUCT_DEFINITION_SHAPE ( 'NONE', 'NONE',  #164 ) ;
#161 = ORIENTED_EDGE ( 'NONE', *, *, #216, .F. ) ;
#162 = AXIS2_PLACEMENT_3D ( 'NONE', #192, #75, #133 ) ;
#163 = ORIENTED_EDGE ( 'NONE', *, *, #102, .F. ) ;
#164 = PRODUCT_DEFINITION ( 'UNKNOWN', '', #10, #132 ) ;
#165 = EDGE_LOOP ( 'NONE', ( #141 ) ) ;
#166 = COORDINATED_UNIVERSAL_TIME_OFFSET ( 1, 0, .AHEAD. ) ;
#167 = AXIS2_PLACEMENT_3D ( 'NONE', #150, #230, #23 ) ;
#168 = MECHANICAL_CONTEXT ( 'NONE', #159, 'mechanical' ) ;
#169 = ORGANIZATION ( 'UNSPECIFIED', 'UNSPECIFIED', '' ) ;
#170 = VERTEX_POINT ( 'NONE', #228 ) ;
#171 = DIRECTION ( 'NONE',  ( 0.0000000000000000000, -1.000000000000000000, 0.0000000000000000000 ) ) ;
#172 = DIRECTION ( 'NONE',  ( -3.491481338843133355E-15, 1.224646799147353207E-16, -1.000000000000000000 ) ) ;
#173 = DIRECTION ( 'NONE',  ( 3.081487911019611346E-30, -1.000000000000000000, 8.673617379884131121E-16 ) ) ;
#174 = CONICAL_SURFACE ( 'NONE', #134, 1.999999999999978018, 0.2617993877991487972 ) ;
#175 = ADVANCED_BREP_SHAPE_REPRESENTATION ( '957524', ( #119, #33, #35 ), #153 ) ;
#176 = CARTESIAN_POINT ( 'NONE',  ( 4.682591004859468262E-14, 1.642431830300835551E-14, 13.41147367097484278 ) ) ;
#177 = FACE_OUTER_BOUND ( 'NONE', #207, .T. ) ;
#178 = CLOSED_SHELL ( 'NONE', ( #136, #233, #154, #253 ) ) ;
#179 = PRODUCT_RELATED_PRODUCT_CATEGORY ( 'detail', '', ( #140 ) ) ;
#180 = PERSON_AND_ORGANIZATION ( #26, #169 ) ;
#181 = APPROVAL_STATUS ( 'not_yet_approved' ) ;
#182 = ADVANCED_FACE ( 'NONE', ( #147 ), #212, .F. ) ;
#183 = EDGE_LOOP ( 'NONE', ( #163 ) ) ;
#184 = PERSON_AND_ORGANIZATION ( #26, #169 ) ;
#185 = CARTESIAN_POINT ( 'NONE',  ( 2.793185071074506684E-14, 0.5499999999999989342, 8.000000000000000000 ) ) ;
#186 = CARTESIAN_POINT ( 'NONE',  ( 1.152188841818234323E-14, 4.041334437186269355E-15, 3.300000000000000711 ) ) ;
#187 = DIRECTION ( 'NONE',  ( 4.275831445896958607E-31, 1.000000000000000000, 1.224646799147353207E-16 ) ) ;
#188 = DIRECTION ( 'NONE',  ( -3.491481338843133355E-15, 1.224646799147353207E-16, -1.000000000000000000 ) ) ;
#189 = FACE_OUTER_BOUND ( 'NONE', #63, .T. ) ;
#190 = CARTESIAN_POINT ( 'NONE',  ( 0.0000000000000000000, 0.0000000000000000000, 0.0000000000000000000 ) ) ;
#191 = EDGE_CURVE ( 'NONE', #170, #170, #14, .T. ) ;
#192 = CARTESIAN_POINT ( 'NONE',  ( 7.608820299638504290E-16, 2.668814901450159924E-16, 0.2179252747247851230 ) ) ;
#193 = CONICAL_SURFACE ( 'NONE', #162, 0.5499999999999997113, 1.082104136236486491 ) ;
#194 = CYLINDRICAL_SURFACE ( 'NONE', #15, 1.499999999999994893 ) ;
#195 = DATE_TIME_ROLE ( 'creation_date' ) ;
#196 = PERSON_AND_ORGANIZATION ( #26, #169 ) ;
#197 = CIRCLE ( 'NONE', #231, 1.200000000000001732 ) ;
#198 = CC_DESIGN_APPROVAL ( #37, ( #117 ) ) ;
#199 = CALENDAR_DATE ( 2021, 15, 10 ) ;
#200 = LOCAL_TIME ( 11, 34, 29.00000000000000000, #166 ) ;
#201 = DIRECTION ( 'NONE',  ( 4.275831445896958607E-31, 1.000000000000000000, 1.224646799147353207E-16 ) ) ;
#202 = DIRECTION ( 'NONE',  ( -4.335426714639588061E-30, 1.000000000000000000, -1.220314133533933905E-15 ) ) ;
#203 = VERTEX_POINT ( 'NONE', #123 ) ;
#204 = APPROVAL_PERSON_ORGANIZATION ( #180, #37, #61 ) ;
#205 = DIRECTION ( 'NONE',  ( 0.0000000000000000000, 1.000000000000000000, 0.0000000000000000000 ) ) ;
#206 =( NAMED_UNIT ( * ) SI_UNIT ( $, .STERADIAN. ) SOLID_ANGLE_UNIT ( ) );
#207 = EDGE_LOOP ( 'NONE', ( #248 ) ) ;
#208 = CC_DESIGN_PERSON_AND_ORGANIZATION_ASSIGNMENT ( #105, #48, ( #140 ) ) ;
#209 = EDGE_CURVE ( 'NONE', #90, #90, #225, .T. ) ;
#210 = CYLINDRICAL_SURFACE ( 'NONE', #87, 0.5499999999999944933 ) ;
#211 = DIRECTION ( 'NONE',  ( -3.491481338843133355E-15, -1.224646799147354045E-15, -1.000000000000000000 ) ) ;
#212 = PLANE ( 'NONE',  #247 ) ;
#213 = COORDINATED_UNIVERSAL_TIME_OFFSET ( 1, 0, .AHEAD. ) ;
#214 = APPROVAL_DATE_TIME ( #235, #64 ) ;
#215 = DATE_AND_TIME ( #79, #47 ) ;
#216 = EDGE_CURVE ( 'NONE', #243, #243, #137, .T. ) ;
#217 = EDGE_LOOP ( 'NONE', ( #246 ) ) ;
#218 = AXIS2_PLACEMENT_3D ( 'NONE', #40, #188, #201 ) ;
#219 = CC_DESIGN_DATE_AND_TIME_ASSIGNMENT ( #8, #195, ( #164 ) ) ;
#220 = ORIENTED_EDGE ( 'NONE', *, *, #191, .F. ) ;
#221 = DIRECTION ( 'NONE',  ( -3.491481338843133355E-15, 1.224646799147353207E-16, -1.000000000000000000 ) ) ;
#222 = FACE_OUTER_BOUND ( 'NONE', #16, .T. ) ;
#223 = CARTESIAN_POINT ( 'NONE',  ( 1.735266225405037467E-13, -6.086494591762345225E-15, 49.70000000000000284 ) ) ;
#224 = CC_DESIGN_APPROVAL ( #64, ( #10 ) ) ;
#225 = CIRCLE ( 'NONE', #80, 1.499999999999994893 ) ;
#226 = CARTESIAN_POINT ( 'NONE',  ( 1.152188841818234323E-14, 4.041334437186269355E-15, 3.300000000000000711 ) ) ;
#227 = ADVANCED_FACE ( 'NONE', ( #244, #71 ), #55, .T. ) ;
#228 = CARTESIAN_POINT ( 'NONE',  ( 1.152188841818234323E-14, -0.5499999999999904965, 3.300000000000000711 ) ) ;
#229 = FACE_OUTER_BOUND ( 'NONE', #122, .T. ) ;
#230 = DIRECTION ( 'NONE',  ( -3.491481338843133355E-15, -1.224646799147354045E-15, -1.000000000000000000 ) ) ;
#231 = AXIS2_PLACEMENT_3D ( 'NONE', #94, #221, #77 ) ;
#232 = DIRECTION ( 'NONE',  ( -3.491481338843133355E-15, 1.224646799147353207E-16, -1.000000000000000000 ) ) ;
#233 = ADVANCED_FACE ( 'NONE', ( #177 ), #5, .T. ) ;
#234 = PERSON_AND_ORGANIZATION ( #26, #169 ) ;
#235 = DATE_AND_TIME ( #199, #251 ) ;
#236 = EDGE_LOOP ( 'NONE', ( #220 ) ) ;
#237 = CIRCLE ( 'NONE', #257, 1.500000000000001554 ) ;
#238 = EDGE_LOOP ( 'NONE', ( #36 ) ) ;
#239 = VERTEX_POINT ( 'NONE', #93 ) ;
#240 = CIRCLE ( 'NONE', #29, 0.5499999999999996003 ) ;
#241 = DATE_AND_TIME ( #260, #200 ) ;
#242 = FACE_OUTER_BOUND ( 'NONE', #86, .T. ) ;
#243 = VERTEX_POINT ( 'NONE', #245 ) ;
#244 = FACE_OUTER_BOUND ( 'NONE', #183, .T. ) ;
#245 = CARTESIAN_POINT ( 'NONE',  ( 1.152188841818234323E-14, -0.5499999999999904965, 3.300000000000000711 ) ) ;
#246 = ORIENTED_EDGE ( 'NONE', *, *, #52, .T. ) ;
#247 = AXIS2_PLACEMENT_3D ( 'NONE', #149, #131, #115 ) ;
#248 = ORIENTED_EDGE ( 'NONE', *, *, #11, .T. ) ;
#249 = EDGE_LOOP ( 'NONE', ( #261 ) ) ;
#250 = CARTESIAN_POINT ( 'NONE',  ( 5.645263651398606884E-16, 1.980091940952177439E-16, 0.1616867771451159230 ) ) ;
#251 = LOCAL_TIME ( 11, 34, 29.00000000000000000, #155 ) ;
#252 = DATE_TIME_ROLE ( 'classification_date' ) ;
#253 = ADVANCED_FACE ( 'NONE', ( #262, #22 ), #210, .T. ) ;
#254 = SECURITY_CLASSIFICATION_LEVEL ( 'unclassified' ) ;
#255 = AXIS2_PLACEMENT_3D ( 'NONE', #30, #112, #202 ) ;
#256 = APPROVAL_STATUS ( 'not_yet_approved' ) ;
#257 = AXIS2_PLACEMENT_3D ( 'NONE', #223, #89, #91 ) ;
#258 = ORIENTED_EDGE ( 'NONE', *, *, #52, .F. ) ;
#259 = ADVANCED_FACE ( 'NONE', ( #222 ), #72, .F. ) ;
#260 = CALENDAR_DATE ( 2021, 15, 10 ) ;
#261 = ORIENTED_EDGE ( 'NONE', *, *, #18, .T. ) ;
#262 = FACE_OUTER_BOUND ( 'NONE', #84, .T. ) ;
#263 = DIRECTION ( 'NONE',  ( -3.491481338843133355E-15, 1.224646799147353207E-16, -1.000000000000000000 ) ) ;
ENDSEC;
END-ISO-10303-21;
