ISO-10303-21;
HEADER;
FILE_DESCRIPTION (( 'STEP AP203' ),
    '1' );
FILE_NAME ('957467.step',
    '2021-10-15T09:34:29',
    ( '' ),
    ( '' ),
    'SwSTEP 2.0',
    'SolidWorks 2019',
    '' );
FILE_SCHEMA (( 'CONFIG_CONTROL_DESIGN' ));
ENDSEC;

DATA;
#1 = PRODUCT_DEFINITION_FORMATION_WITH_SPECIFIED_SOURCE ( 'ANY', '', #217, .NOT_KNOWN. ) ;
#2 = FACE_OUTER_BOUND ( 'NONE', #18, .T. ) ;
#3 = FACE_BOUND ( 'NONE', #214, .T. ) ;
#4 = CARTESIAN_POINT ( 'NONE',  ( 0.0000000000000000000, 0.0000000000000000000, 0.0000000000000000000 ) ) ;
#5 = DIRECTION ( 'NONE',  ( 3.491481338843133355E-15, 1.224646799147354045E-15, 1.000000000000000000 ) ) ;
#6 = VERTEX_POINT ( 'NONE', #232 ) ;
#7 = AXIS2_PLACEMENT_3D ( 'NONE', #4, #82, #168 ) ;
#8 =( NAMED_UNIT ( * ) SI_UNIT ( $, .STERADIAN. ) SOLID_ANGLE_UNIT ( ) );
#9 = APPLICATION_PROTOCOL_DEFINITION ( 'international standard', 'config_control_design', 1994, #123 ) ;
#10 = CIRCLE ( 'NONE', #263, 1.200000000000001732 ) ;
#11 = FACE_OUTER_BOUND ( 'NONE', #186, .T. ) ;
#12 = PERSON_AND_ORGANIZATION_ROLE ( 'classification_officer' ) ;
#13 = EDGE_LOOP ( 'NONE', ( #161 ) ) ;
#14 = SECURITY_CLASSIFICATION_LEVEL ( 'unclassified' ) ;
#15 = COORDINATED_UNIVERSAL_TIME_OFFSET ( 1, 0, .AHEAD. ) ;
#16 = APPROVAL_PERSON_ORGANIZATION ( #90, #54, #195 ) ;
#17 = COORDINATED_UNIVERSAL_TIME_OFFSET ( 1, 0, .AHEAD. ) ;
#18 = EDGE_LOOP ( 'NONE', ( #242 ) ) ;
#19 = AXIS2_PLACEMENT_3D ( 'NONE', #71, #147, #112 ) ;
#20 = DIRECTION ( 'NONE',  ( 0.0000000000000000000, -1.000000000000000000, 0.0000000000000000000 ) ) ;
#21 = FACE_OUTER_BOUND ( 'NONE', #13, .T. ) ;
#22 = ADVANCED_BREP_SHAPE_REPRESENTATION ( '957467', ( #243, #68, #256 ), #48 ) ;
#23 = DIRECTION ( 'NONE',  ( 0.0000000000000000000, 1.000000000000000000, 0.0000000000000000000 ) ) ;
#24 = DIRECTION ( 'NONE',  ( -3.491481338843133355E-15, 1.224646799147353207E-16, -1.000000000000000000 ) ) ;
#25 = FACE_OUTER_BOUND ( 'NONE', #119, .T. ) ;
#26 = EDGE_CURVE ( 'NONE', #129, #129, #166, .T. ) ;
#27 = PERSON_AND_ORGANIZATION ( #216, #38 ) ;
#28 = CARTESIAN_POINT ( 'NONE',  ( 7.184881010870955023E-16, 2.520117015757316785E-16, 0.2057831709119657404 ) ) ;
#29 = FACE_OUTER_BOUND ( 'NONE', #238, .T. ) ;
#30 = AXIS2_PLACEMENT_3D ( 'NONE', #125, #106, #104 ) ;
#31 = PERSON_AND_ORGANIZATION ( #216, #38 ) ;
#32 = ORIENTED_EDGE ( 'NONE', *, *, #26, .F. ) ;
#33 = ADVANCED_FACE ( 'NONE', ( #21, #2 ), #169, .T. ) ;
#34 = APPROVAL ( #177, 'UNSPECIFIED' ) ;
#35 = ORIENTED_EDGE ( 'NONE', *, *, #251, .F. ) ;
#36 = PERSON_AND_ORGANIZATION_ROLE ( 'creator' ) ;
#37 = CONICAL_SURFACE ( 'NONE', #174, 1.999999999999974021, 0.2617993877991485197 ) ;
#38 = ORGANIZATION ( 'UNSPECIFIED', 'UNSPECIFIED', '' ) ;
#39 = ORIENTED_EDGE ( 'NONE', *, *, #202, .T. ) ;
#40 = DIRECTION ( 'NONE',  ( -3.491481338843133355E-15, 1.224646799147353207E-16, -1.000000000000000000 ) ) ;
#41 = ORIENTED_EDGE ( 'NONE', *, *, #78, .T. ) ;
#42 = AXIS2_PLACEMENT_3D ( 'NONE', #103, #40, #23 ) ;
#43 = ADVANCED_FACE ( 'NONE', ( #167, #46 ), #37, .T. ) ;
#44 = DIRECTION ( 'NONE',  ( -3.491481338843133355E-15, -1.224646799147354045E-15, -1.000000000000000000 ) ) ;
#45 = DIRECTION ( 'NONE',  ( -4.402125587170827910E-30, 1.000000000000000000, -1.239088197126291655E-15 ) ) ;
#46 = FACE_OUTER_BOUND ( 'NONE', #219, .T. ) ;
#47 = CARTESIAN_POINT ( 'NONE',  ( 9.683953108630796749E-16, 0.6999999999999998446, 0.2773594405588166723 ) ) ;
#48 =( GEOMETRIC_REPRESENTATION_CONTEXT ( 3 ) GLOBAL_UNCERTAINTY_ASSIGNED_CONTEXT ( ( #145 ) ) GLOBAL_UNIT_ASSIGNED_CONTEXT ( ( #229, #252, #8 ) ) REPRESENTATION_CONTEXT ( 'NONE', 'WORKASPACE' ) );
#49 = CARTESIAN_POINT ( 'NONE',  ( 1.735266225405037467E-13, 1.499999999999995559, 49.70000000000000284 ) ) ;
#50 = DATE_AND_TIME ( #261, #66 ) ;
#51 = ADVANCED_FACE ( 'NONE', ( #85 ), #63, .T. ) ;
#52 = DATE_AND_TIME ( #118, #159 ) ;
#53 = EDGE_LOOP ( 'NONE', ( #180 ) ) ;
#54 = APPROVAL ( #171, 'UNSPECIFIED' ) ;
#55 = APPROVAL_DATE_TIME ( #97, #184 ) ;
#56 = ORIENTED_EDGE ( 'NONE', *, *, #89, .F. ) ;
#57 = COORDINATED_UNIVERSAL_TIME_OFFSET ( 1, 0, .AHEAD. ) ;
#58 = LOCAL_TIME ( 11, 34, 29.00000000000000000, #57 ) ;
#59 = CARTESIAN_POINT ( 'NONE',  ( -3.491481338843130200E-15, -1.224646799147353059E-15, -0.9999999999999991118 ) ) ;
#60 = DIRECTION ( 'NONE',  ( 3.491481338843133355E-15, 1.224646799147354045E-15, 1.000000000000000000 ) ) ;
#61 = CC_DESIGN_PERSON_AND_ORGANIZATION_ASSIGNMENT ( #98, #12, ( #260 ) ) ;
#62 = CARTESIAN_POINT ( 'NONE',  ( 9.683953108630826332E-16, 3.396673510936566817E-16, 0.2773594405588175604 ) ) ;
#63 = PLANE ( 'NONE',  #30 ) ;
#64 = DIRECTION ( 'NONE',  ( -3.491481338843133355E-15, 1.224646799147353207E-16, -1.000000000000000000 ) ) ;
#65 = CIRCLE ( 'NONE', #250, 0.6999999999999837463 ) ;
#66 = LOCAL_TIME ( 11, 34, 29.00000000000000000, #233 ) ;
#67 = CARTESIAN_POINT ( 'NONE',  ( 1.466422162314115694E-14, -0.6999999999999865219, 4.199999999999999289 ) ) ;
#68 = MANIFOLD_SOLID_BREP ( 'Corps-Déplacer/Copier1[2]', #152 ) ;
#69 = CARTESIAN_POINT ( 'NONE',  ( 4.189777606611760026E-14, 0.6999999999999985123, 12.00000000000000000 ) ) ;
#70 = AXIS2_PLACEMENT_3D ( 'NONE', #120, #226, #208 ) ;
#71 = CARTESIAN_POINT ( 'NONE',  ( -3.491481338843130200E-15, -1.224646799147353059E-15, -0.9999999999999991118 ) ) ;
#72 = EDGE_CURVE ( 'NONE', #87, #87, #201, .T. ) ;
#73 = PERSON_AND_ORGANIZATION ( #216, #38 ) ;
#74 = CONICAL_SURFACE ( 'NONE', #109, 0.5653846153843995470, 1.221730476396031939 ) ;
#75 = CALENDAR_DATE ( 2021, 15, 10 ) ;
#76 = ORIENTED_EDGE ( 'NONE', *, *, #78, .F. ) ;
#77 = CIRCLE ( 'NONE', #148, 0.6999999999999916289 ) ;
#78 = EDGE_CURVE ( 'NONE', #154, #154, #10, .T. ) ;
#79 = DIRECTION ( 'NONE',  ( -3.491481338843133355E-15, 1.224646799147353207E-16, -1.000000000000000000 ) ) ;
#80 = DIRECTION ( 'NONE',  ( -4.402125587170877656E-30, 1.000000000000000000, -1.239088197126305657E-15 ) ) ;
#81 = CC_DESIGN_PERSON_AND_ORGANIZATION_ASSIGNMENT ( #114, #258, ( #234 ) ) ;
#82 = DIRECTION ( 'NONE',  ( -3.491481338843133355E-15, 1.224646799147353207E-16, -1.000000000000000000 ) ) ;
#83 = EDGE_CURVE ( 'NONE', #149, #149, #163, .T. ) ;
#84 = DESIGN_CONTEXT ( 'detailed design', #123, 'design' ) ;
#85 = FACE_OUTER_BOUND ( 'NONE', #117, .T. ) ;
#86 = DIRECTION ( 'NONE',  ( -3.491481338843133355E-15, -1.224646799147354045E-15, -1.000000000000000000 ) ) ;
#87 = VERTEX_POINT ( 'NONE', #67 ) ;
#88 = VERTEX_POINT ( 'NONE', #49 ) ;
#89 = EDGE_CURVE ( 'NONE', #6, #6, #158, .T. ) ;
#90 = PERSON_AND_ORGANIZATION ( #216, #38 ) ;
#91 = AXIS2_PLACEMENT_3D ( 'NONE', #62, #140, #45 ) ;
#92 = CC_DESIGN_APPROVAL ( #184, ( #260 ) ) ;
#93 = FACE_OUTER_BOUND ( 'NONE', #53, .T. ) ;
#94 = EDGE_LOOP ( 'NONE', ( #176 ) ) ;
#95 = PRODUCT_DEFINITION_SHAPE ( 'NONE', 'NONE',  #234 ) ;
#96 = ADVANCED_FACE ( 'NONE', ( #222, #224 ), #139, .T. ) ;
#97 = DATE_AND_TIME ( #75, #211 ) ;
#98 = PERSON_AND_ORGANIZATION ( #216, #38 ) ;
#99 = EDGE_LOOP ( 'NONE', ( #35 ) ) ;
#100 = ADVANCED_FACE ( 'NONE', ( #225 ), #223, .F. ) ;
#101 = DIRECTION ( 'NONE',  ( 6.162975822039234604E-30, -1.000000000000000000, 1.734723475976829577E-15 ) ) ;
#102 = FACE_OUTER_BOUND ( 'NONE', #124, .T. ) ;
#103 = CARTESIAN_POINT ( 'NONE',  ( 1.745740669421566678E-13, -6.123233995736766085E-15, 50.00000000000000000 ) ) ;
#104 = DIRECTION ( 'NONE',  ( -4.275831445896958607E-31, -1.000000000000000000, -1.224646799147353207E-16 ) ) ;
#105 = CC_DESIGN_SECURITY_CLASSIFICATION ( #260, ( #1 ) ) ;
#106 = DIRECTION ( 'NONE',  ( 3.491481338843133355E-15, -1.224646799147353207E-16, 1.000000000000000000 ) ) ;
#107 = DIRECTION ( 'NONE',  ( 4.275831445896958607E-31, 1.000000000000000000, 1.224646799147353207E-16 ) ) ;
#108 = CARTESIAN_POINT ( 'NONE',  ( 1.745740669421566678E-13, 8.998558695971067645E-33, 50.00000000000000000 ) ) ;
#109 = AXIS2_PLACEMENT_3D ( 'NONE', #28, #254, #175 ) ;
#110 = CC_DESIGN_DATE_AND_TIME_ASSIGNMENT ( #155, #192, ( #234 ) ) ;
#111 = PERSON_AND_ORGANIZATION_ROLE ( 'design_owner' ) ;
#112 = DIRECTION ( 'NONE',  ( -4.402125587170877656E-30, 1.000000000000000000, -1.239088197126305657E-15 ) ) ;
#113 = AXIS2_PLACEMENT_3D ( 'NONE', #122, #247, #183 ) ;
#114 = PERSON_AND_ORGANIZATION ( #216, #38 ) ;
#115 = EDGE_LOOP ( 'NONE', ( #41 ) ) ;
#116 = APPROVAL_DATE_TIME ( #52, #34 ) ;
#117 = EDGE_LOOP ( 'NONE', ( #197 ) ) ;
#118 = CALENDAR_DATE ( 2021, 15, 10 ) ;
#119 = EDGE_LOOP ( 'NONE', ( #76 ) ) ;
#120 = CARTESIAN_POINT ( 'NONE',  ( 1.466422162314115694E-14, 1.124819836996384037E-32, 4.199999999999999289 ) ) ;
#121 = DIRECTION ( 'NONE',  ( -4.258008380449596769E-30, 1.000000000000000000, -1.246463722109661433E-15 ) ) ;
#122 = CARTESIAN_POINT ( 'NONE',  ( 9.683953108630826332E-16, 3.396673510936566817E-16, 0.2773594405588175604 ) ) ;
#123 = APPLICATION_CONTEXT ( 'configuration controlled 3d designs of mechanical parts and assemblies' ) ;
#124 = EDGE_LOOP ( 'NONE', ( #187 ) ) ;
#125 = CARTESIAN_POINT ( 'NONE',  ( 1.466422162314115694E-14, 1.124819836996384037E-32, 4.199999999999999289 ) ) ;
#126 = AXIS2_PLACEMENT_3D ( 'NONE', #249, #24, #141 ) ;
#127 = CC_DESIGN_APPROVAL ( #34, ( #1 ) ) ;
#128 = DIRECTION ( 'NONE',  ( 1.000000000000000000, 0.0000000000000000000, 0.0000000000000000000 ) ) ;
#129 = VERTEX_POINT ( 'NONE', #47 ) ;
#130 = VERTEX_POINT ( 'NONE', #69 ) ;
#131 = LOCAL_TIME ( 11, 34, 29.00000000000000000, #218 ) ;
#132 = APPLICATION_PROTOCOL_DEFINITION ( 'international standard', 'config_control_design', 1994, #157 ) ;
#133 = CARTESIAN_POINT ( 'NONE',  ( 1.466422162314115694E-14, -0.6999999999999865219, 4.199999999999999289 ) ) ;
#134 = CC_DESIGN_PERSON_AND_ORGANIZATION_ASSIGNMENT ( #27, #111, ( #217 ) ) ;
#135 = APPROVAL_ROLE ( '' ) ;
#136 = EDGE_LOOP ( 'NONE', ( #262 ) ) ;
#137 = APPROVAL_DATE_TIME ( #50, #54 ) ;
#138 = PERSON_AND_ORGANIZATION ( #216, #38 ) ;
#139 = CONICAL_SURFACE ( 'NONE', #42, 1.200000000000001732, 0.7853981633974453924 ) ;
#140 = DIRECTION ( 'NONE',  ( -3.491481338843133355E-15, -1.224646799147354045E-15, -1.000000000000000000 ) ) ;
#141 = DIRECTION ( 'NONE',  ( 0.0000000000000000000, -1.000000000000000000, 0.0000000000000000000 ) ) ;
#142 = AXIS2_PLACEMENT_3D ( 'NONE', #170, #209, #190 ) ;
#143 = DIRECTION ( 'NONE',  ( -3.491481338843133355E-15, 1.224646799147353207E-16, -1.000000000000000000 ) ) ;
#144 = DIRECTION ( 'NONE',  ( 4.108650548026116232E-30, -1.000000000000000000, 1.156482317317875078E-15 ) ) ;
#145 = UNCERTAINTY_MEASURE_WITH_UNIT (LENGTH_MEASURE( 1.000000000000000082E-05 ), #229, 'distance_accuracy_value', 'NONE');
#146 = CARTESIAN_POINT ( 'NONE',  ( 1.745740669421566678E-13, -6.123233995736766085E-15, 50.00000000000000000 ) ) ;
#147 = DIRECTION ( 'NONE',  ( -3.491481338843133355E-15, -1.224646799147354045E-15, -1.000000000000000000 ) ) ;
#148 = AXIS2_PLACEMENT_3D ( 'NONE', #203, #79, #20 ) ;
#149 = VERTEX_POINT ( 'NONE', #189 ) ;
#150 = DIRECTION ( 'NONE',  ( 0.0000000000000000000, 0.0000000000000000000, 1.000000000000000000 ) ) ;
#151 = ADVANCED_FACE ( 'NONE', ( #3, #200 ), #227, .T. ) ;
#152 = CLOSED_SHELL ( 'NONE', ( #51, #230, #151, #220 ) ) ;
#153 = APPROVAL_PERSON_ORGANIZATION ( #257, #184, #221 ) ;
#154 = VERTEX_POINT ( 'NONE', #188 ) ;
#155 = DATE_AND_TIME ( #160, #58 ) ;
#156 = ORIENTED_EDGE ( 'NONE', *, *, #83, .T. ) ;
#157 = APPLICATION_CONTEXT ( 'configuration controlled 3d designs of mechanical parts and assemblies' ) ;
#158 = CIRCLE ( 'NONE', #255, 1.499999999999995115 ) ;
#159 = LOCAL_TIME ( 11, 34, 29.00000000000000000, #17 ) ;
#160 = CALENDAR_DATE ( 2021, 15, 10 ) ;
#161 = ORIENTED_EDGE ( 'NONE', *, *, #89, .T. ) ;
#162 = DATE_AND_TIME ( #198, #131 ) ;
#163 = CIRCLE ( 'NONE', #240, 0.5653846153843994360 ) ;
#164 = FACE_OUTER_BOUND ( 'NONE', #193, .T. ) ;
#165 = DIRECTION ( 'NONE',  ( 0.0000000000000000000, 1.000000000000000000, 0.0000000000000000000 ) ) ;
#166 = CIRCLE ( 'NONE', #91, 0.6999999999999995115 ) ;
#167 = FACE_BOUND ( 'NONE', #136, .T. ) ;
#168 = DIRECTION ( 'NONE',  ( 4.275831445896958607E-31, 1.000000000000000000, 1.224646799147353207E-16 ) ) ;
#169 = CYLINDRICAL_SURFACE ( 'NONE', #7, 1.499999999999995115 ) ;
#170 = CARTESIAN_POINT ( 'NONE',  ( 1.735266225405037467E-13, -6.086494591762345225E-15, 49.70000000000000284 ) ) ;
#171 = APPROVAL_STATUS ( 'not_yet_approved' ) ;
#172 = EDGE_CURVE ( 'NONE', #228, #228, #77, .T. ) ;
#173 = PLANE ( 'NONE',  #236 ) ;
#174 = AXIS2_PLACEMENT_3D ( 'NONE', #248, #60, #101 ) ;
#175 = DIRECTION ( 'NONE',  ( 4.258008380449596068E-30, -1.000000000000000000, 1.246463722109661235E-15 ) ) ;
#176 = ORIENTED_EDGE ( 'NONE', *, *, #72, .T. ) ;
#177 = APPROVAL_STATUS ( 'not_yet_approved' ) ;
#178 = ORIENTED_EDGE ( 'NONE', *, *, #83, .F. ) ;
#179 = APPROVAL_STATUS ( 'not_yet_approved' ) ;
#180 = ORIENTED_EDGE ( 'NONE', *, *, #172, .T. ) ;
#181 = CARTESIAN_POINT ( 'NONE',  ( 5.232208466631073415E-14, 1.835211685036393100E-14, 14.98564064605515611 ) ) ;
#182 = DIRECTION ( 'NONE',  ( -3.491481338843133355E-15, -1.224646799147354045E-15, -1.000000000000000000 ) ) ;
#183 = DIRECTION ( 'NONE',  ( 4.402125587170827910E-30, -1.000000000000000000, 1.239088197126291655E-15 ) ) ;
#184 = APPROVAL ( #179, 'UNSPECIFIED' ) ;
#185 = CLOSED_SHELL ( 'NONE', ( #33, #96, #246, #196, #43, #100 ) ) ;
#186 = EDGE_LOOP ( 'NONE', ( #156 ) ) ;
#187 = ORIENTED_EDGE ( 'NONE', *, *, #72, .F. ) ;
#188 = CARTESIAN_POINT ( 'NONE',  ( 1.745740669421566678E-13, 1.199999999999995515, 50.00000000000000000 ) ) ;
#189 = CARTESIAN_POINT ( 'NONE',  ( 7.184881010870930371E-16, 0.5653846153843996580, 0.2057831709119650465 ) ) ;
#190 = DIRECTION ( 'NONE',  ( 0.0000000000000000000, 1.000000000000000000, 0.0000000000000000000 ) ) ;
#191 = CYLINDRICAL_SURFACE ( 'NONE', #19, 0.6999999999999916289 ) ;
#192 = DATE_TIME_ROLE ( 'creation_date' ) ;
#193 = EDGE_LOOP ( 'NONE', ( #39 ) ) ;
#194 = PERSON_AND_ORGANIZATION_ROLE ( 'design_supplier' ) ;
#195 = APPROVAL_ROLE ( '' ) ;
#196 = ADVANCED_FACE ( 'NONE', ( #164, #102 ), #244, .T. ) ;
#197 = ORIENTED_EDGE ( 'NONE', *, *, #172, .F. ) ;
#198 = CALENDAR_DATE ( 2021, 15, 10 ) ;
#199 = EDGE_LOOP ( 'NONE', ( #237 ) ) ;
#200 = FACE_OUTER_BOUND ( 'NONE', #199, .T. ) ;
#201 = CIRCLE ( 'NONE', #126, 0.6999999999999916289 ) ;
#202 = EDGE_CURVE ( 'NONE', #130, #130, #65, .T. ) ;
#203 = CARTESIAN_POINT ( 'NONE',  ( 1.466422162314115694E-14, 5.143516556418885689E-15, 4.199999999999999289 ) ) ;
#204 = CC_DESIGN_PERSON_AND_ORGANIZATION_ASSIGNMENT ( #31, #194, ( #1 ) ) ;
#205 = DIRECTION ( 'NONE',  ( 0.0000000000000000000, 1.000000000000000000, 0.0000000000000000000 ) ) ;
#206 = CARTESIAN_POINT ( 'NONE',  ( 7.184881010870955023E-16, 2.520117015757316785E-16, 0.2057831709119657404 ) ) ;
#207 = APPROVAL_PERSON_ORGANIZATION ( #73, #34, #135 ) ;
#208 = DIRECTION ( 'NONE',  ( -4.275831445896958607E-31, -1.000000000000000000, -1.224646799147353207E-16 ) ) ;
#209 = DIRECTION ( 'NONE',  ( -3.491481338843133355E-15, 1.224646799147353207E-16, -1.000000000000000000 ) ) ;
#210 = MECHANICAL_CONTEXT ( 'NONE', #157, 'mechanical' ) ;
#211 = LOCAL_TIME ( 11, 34, 29.00000000000000000, #15 ) ;
#212 = PRODUCT_RELATED_PRODUCT_CATEGORY ( 'detail', '', ( #217 ) ) ;
#213 = CARTESIAN_POINT ( 'NONE',  ( 0.0000000000000000000, 0.0000000000000000000, 0.0000000000000000000 ) ) ;
#214 = EDGE_LOOP ( 'NONE', ( #178 ) ) ;
#215 = AXIS2_PLACEMENT_3D ( 'NONE', #59, #182, #80 ) ;
#216 = PERSON ( 'UNSPECIFIED', 'UNSPECIFIED', 'UNSPECIFIED', ('UNSPECIFIED'), ('UNSPECIFIED'), ('UNSPECIFIED') ) ;
#217 = PRODUCT ( '957467', '957467', '', ( #210 ) ) ;
#218 = COORDINATED_UNIVERSAL_TIME_OFFSET ( 1, 0, .AHEAD. ) ;
#219 = EDGE_LOOP ( 'NONE', ( #56 ) ) ;
#220 = ADVANCED_FACE ( 'NONE', ( #93, #29 ), #191, .T. ) ;
#221 = APPROVAL_ROLE ( '' ) ;
#222 = FACE_OUTER_BOUND ( 'NONE', #99, .T. ) ;
#223 = PLANE ( 'NONE',  #70 ) ;
#224 = FACE_BOUND ( 'NONE', #115, .T. ) ;
#225 = FACE_OUTER_BOUND ( 'NONE', #94, .T. ) ;
#226 = DIRECTION ( 'NONE',  ( 3.491481338843133355E-15, -1.224646799147353207E-16, 1.000000000000000000 ) ) ;
#227 = CONICAL_SURFACE ( 'NONE', #113, 0.6999999999999995115, 1.082104136236486047 ) ;
#228 = VERTEX_POINT ( 'NONE', #133 ) ;
#229 =( LENGTH_UNIT ( ) NAMED_UNIT ( * ) SI_UNIT ( .MILLI., .METRE. ) );
#230 = ADVANCED_FACE ( 'NONE', ( #11 ), #74, .T. ) ;
#231 = CC_DESIGN_DATE_AND_TIME_ASSIGNMENT ( #162, #239, ( #260 ) ) ;
#232 = CARTESIAN_POINT ( 'NONE',  ( 5.232208466631074046E-14, -1.499999999999976685, 14.98564064605515789 ) ) ;
#233 = COORDINATED_UNIVERSAL_TIME_OFFSET ( 1, 0, .AHEAD. ) ;
#234 = PRODUCT_DEFINITION ( 'UNKNOWN', '', #1, #84 ) ;
#235 = SHAPE_DEFINITION_REPRESENTATION ( #95, #22 ) ;
#236 = AXIS2_PLACEMENT_3D ( 'NONE', #108, #64, #107 ) ;
#237 = ORIENTED_EDGE ( 'NONE', *, *, #26, .T. ) ;
#238 = EDGE_LOOP ( 'NONE', ( #32 ) ) ;
#239 = DATE_TIME_ROLE ( 'classification_date' ) ;
#240 = AXIS2_PLACEMENT_3D ( 'NONE', #206, #86, #121 ) ;
#241 = CC_DESIGN_APPROVAL ( #54, ( #234 ) ) ;
#242 = ORIENTED_EDGE ( 'NONE', *, *, #251, .T. ) ;
#243 = MANIFOLD_SOLID_BREP ( 'Corps-Déplacer/Copier1[1]', #185 ) ;
#244 = CYLINDRICAL_SURFACE ( 'NONE', #215, 0.6999999999999916289 ) ;
#245 = CARTESIAN_POINT ( 'NONE',  ( 4.189777606611760026E-14, 1.469576158976824933E-14, 12.00000000000000000 ) ) ;
#246 = ADVANCED_FACE ( 'NONE', ( #25 ), #173, .F. ) ;
#247 = DIRECTION ( 'NONE',  ( 3.491481338843133355E-15, 1.224646799147354045E-15, 1.000000000000000000 ) ) ;
#248 = CARTESIAN_POINT ( 'NONE',  ( 5.883727754143106891E-14, 2.063733888823610583E-14, 16.85166604983952254 ) ) ;
#249 = CARTESIAN_POINT ( 'NONE',  ( 1.466422162314115694E-14, 5.143516556418885689E-15, 4.199999999999999289 ) ) ;
#250 = AXIS2_PLACEMENT_3D ( 'NONE', #245, #44, #205 ) ;
#251 = EDGE_CURVE ( 'NONE', #88, #88, #259, .T. ) ;
#252 =( NAMED_UNIT ( * ) PLANE_ANGLE_UNIT ( ) SI_UNIT ( $, .RADIAN. ) );
#253 = CC_DESIGN_PERSON_AND_ORGANIZATION_ASSIGNMENT ( #138, #36, ( #1 ) ) ;
#254 = DIRECTION ( 'NONE',  ( 3.491481338843133355E-15, 1.224646799147354045E-15, 1.000000000000000000 ) ) ;
#255 = AXIS2_PLACEMENT_3D ( 'NONE', #181, #5, #144 ) ;
#256 = AXIS2_PLACEMENT_3D ( 'NONE', #213, #150, #128 ) ;
#257 = PERSON_AND_ORGANIZATION ( #216, #38 ) ;
#258 = PERSON_AND_ORGANIZATION_ROLE ( 'creator' ) ;
#259 = CIRCLE ( 'NONE', #142, 1.500000000000001554 ) ;
#260 = SECURITY_CLASSIFICATION ( '', '', #14 ) ;
#261 = CALENDAR_DATE ( 2021, 15, 10 ) ;
#262 = ORIENTED_EDGE ( 'NONE', *, *, #202, .F. ) ;
#263 = AXIS2_PLACEMENT_3D ( 'NONE', #146, #143, #165 ) ;
ENDSEC;
END-ISO-10303-21;
