ISO-10303-21;
HEADER;
FILE_DESCRIPTION (( 'STEP AP203' ),
    '1' );
FILE_NAME ('957425.step',
    '2021-11-29T14:58:44',
    ( '' ),
    ( '' ),
    'SwSTEP 2.0',
    'SolidWorks 2019',
    '' );
FILE_SCHEMA (( 'CONFIG_CONTROL_DESIGN' ));
ENDSEC;

DATA;
#1 = ORIENTED_EDGE ( 'NONE', *, *, #224, .F. ) ;
#2 = APPROVAL_DATE_TIME ( #204, #194 ) ;
#3 = AXIS2_PLACEMENT_3D ( 'NONE', #172, #15, #109 ) ;
#4 = ORIENTED_EDGE ( 'NONE', *, *, #265, .F. ) ;
#5 = CARTESIAN_POINT ( 'NONE',  ( 0.0000000000000000000, 0.0000000000000000000, 0.0000000000000000000 ) ) ;
#6 = ORGANIZATION ( 'UNSPECIFIED', 'UNSPECIFIED', '' ) ;
#7 = DIRECTION ( 'NONE',  ( -3.491481338843133355E-15, 1.224646799147352961E-16, -1.000000000000000000 ) ) ;
#8 = AXIS2_PLACEMENT_3D ( 'NONE', #292, #266, #10 ) ;
#9 = ADVANCED_FACE ( 'NONE', ( #206, #170 ), #26, .F. ) ;
#10 = DIRECTION ( 'NONE',  ( 0.0000000000000000000, 1.000000000000000000, 0.0000000000000000000 ) ) ;
#11 = FACE_OUTER_BOUND ( 'NONE', #233, .T. ) ;
#12 = ADVANCED_FACE ( 'NONE', ( #33, #235 ), #219, .T. ) ;
#13 = LOCAL_TIME ( 15, 58, 44.00000000000000000, #93 ) ;
#14 = CARTESIAN_POINT ( 'NONE',  ( 1.326762908760390423E-13, -4.653657836759941152E-15, 38.00000000000000000 ) ) ;
#15 = DIRECTION ( 'NONE',  ( 3.491481338843133355E-15, -1.224646799147352961E-16, 1.000000000000000000 ) ) ;
#16 = EDGE_CURVE ( 'NONE', #165, #165, #230, .T. ) ;
#17 = ADVANCED_BREP_SHAPE_REPRESENTATION ( '957425', ( #284, #90, #127 ), #30 ) ;
#18 = CARTESIAN_POINT ( 'NONE',  ( 1.326762908760390423E-13, -4.653657836759941152E-15, 38.00000000000000000 ) ) ;
#19 = CARTESIAN_POINT ( 'NONE',  ( 0.0000000000000000000, 0.0000000000000000000, 0.0000000000000000000 ) ) ;
#20 = APPROVAL ( #140, 'UNSPECIFIED' ) ;
#21 = CARTESIAN_POINT ( 'NONE',  ( 1.316288464743861212E-13, 1.499999999999998668, 37.69999999999999574 ) ) ;
#22 = CYLINDRICAL_SURFACE ( 'NONE', #213, 1.500000000000000444 ) ;
#23 = PERSON_AND_ORGANIZATION ( #190, #6 ) ;
#24 = CARTESIAN_POINT ( 'NONE',  ( 0.0000000000000000000, 0.0000000000000000000, 0.0000000000000000000 ) ) ;
#25 = APPROVAL_DATE_TIME ( #52, #20 ) ;
#26 = TOROIDAL_SURFACE ( 'NONE', #68, 2.635000000000000231, 2.000000000000000444 ) ;
#27 = AXIS2_PLACEMENT_3D ( 'NONE', #62, #240, #133 ) ;
#28 = DATE_TIME_ROLE ( 'creation_date' ) ;
#29 = EDGE_LOOP ( 'NONE', ( #280 ) ) ;
#30 =( GEOMETRIC_REPRESENTATION_CONTEXT ( 3 ) GLOBAL_UNCERTAINTY_ASSIGNED_CONTEXT ( ( #71 ) ) GLOBAL_UNIT_ASSIGNED_CONTEXT ( ( #221, #95, #250 ) ) REPRESENTATION_CONTEXT ( 'NONE', 'WORKASPACE' ) );
#31 = EDGE_LOOP ( 'NONE', ( #256 ) ) ;
#32 = DIRECTION ( 'NONE',  ( -3.491481338843133355E-15, 1.224646799147352961E-16, -1.000000000000000000 ) ) ;
#33 = FACE_BOUND ( 'NONE', #167, .T. ) ;
#34 = ADVANCED_FACE ( 'NONE', ( #129, #128 ), #208, .T. ) ;
#35 = ORIENTED_EDGE ( 'NONE', *, *, #16, .F. ) ;
#36 = FACE_OUTER_BOUND ( 'NONE', #209, .T. ) ;
#37 = FACE_OUTER_BOUND ( 'NONE', #54, .T. ) ;
#38 = CARTESIAN_POINT ( 'NONE',  ( 5.358479882634335789E-14, -1.879501735712542907E-15, 15.34729635533384595 ) ) ;
#39 = EDGE_CURVE ( 'NONE', #223, #223, #212, .T. ) ;
#40 = DIRECTION ( 'NONE',  ( -3.491481338843133355E-15, 1.224646799147352961E-16, -1.000000000000000000 ) ) ;
#41 = VERTEX_POINT ( 'NONE', #196 ) ;
#42 = PRODUCT_DEFINITION ( 'UNKNOWN', '', #56, #136 ) ;
#43 = PERSON_AND_ORGANIZATION_ROLE ( 'creator' ) ;
#44 = PERSON_AND_ORGANIZATION ( #190, #6 ) ;
#45 = CIRCLE ( 'NONE', #254, 0.5641624327025948071 ) ;
#46 = VERTEX_POINT ( 'NONE', #272 ) ;
#47 = ADVANCED_FACE ( 'NONE', ( #89 ), #238, .F. ) ;
#48 = CALENDAR_DATE ( 2021, 29, 11 ) ;
#49 = DATE_AND_TIME ( #48, #13 ) ;
#50 = EDGE_CURVE ( 'NONE', #202, #202, #239, .T. ) ;
#51 = APPROVAL_PERSON_ORGANIZATION ( #252, #20, #182 ) ;
#52 = DATE_AND_TIME ( #229, #77 ) ;
#53 = CIRCLE ( 'NONE', #8, 0.6350000000000002309 ) ;
#54 = EDGE_LOOP ( 'NONE', ( #184 ) ) ;
#55 = ORIENTED_EDGE ( 'NONE', *, *, #149, .F. ) ;
#56 = PRODUCT_DEFINITION_FORMATION_WITH_SPECIFIED_SOURCE ( 'ANY', '', #295, .NOT_KNOWN. ) ;
#57 = DIRECTION ( 'NONE',  ( -3.491481338843133355E-15, 1.224646799147352961E-16, -1.000000000000000000 ) ) ;
#58 = CC_DESIGN_DATE_AND_TIME_ASSIGNMENT ( #251, #28, ( #42 ) ) ;
#59 = EDGE_LOOP ( 'NONE', ( #79 ) ) ;
#60 = DIRECTION ( 'NONE',  ( 3.491481338843133355E-15, -1.224646799147352961E-16, 1.000000000000000000 ) ) ;
#61 = AXIS2_PLACEMENT_3D ( 'NONE', #119, #73, #137 ) ;
#62 = CARTESIAN_POINT ( 'NONE',  ( 8.728703347107831416E-16, -3.061616997868381785E-17, 0.2499999999999999445 ) ) ;
#63 = FACE_OUTER_BOUND ( 'NONE', #278, .T. ) ;
#64 = CC_DESIGN_DATE_AND_TIME_ASSIGNMENT ( #159, #161, ( #234 ) ) ;
#65 = DIRECTION ( 'NONE',  ( -3.491481338843133355E-15, 1.224646799147352961E-16, -1.000000000000000000 ) ) ;
#66 = APPROVAL_PERSON_ORGANIZATION ( #23, #194, #123 ) ;
#67 = DIRECTION ( 'NONE',  ( 0.0000000000000000000, 1.000000000000000000, 0.0000000000000000000 ) ) ;
#68 = AXIS2_PLACEMENT_3D ( 'NONE', #142, #57, #146 ) ;
#69 = CONICAL_SURFACE ( 'NONE', #92, 1.499999999999997780, 0.1745329251994262310 ) ;
#70 = APPROVAL_DATE_TIME ( #49, #216 ) ;
#71 = UNCERTAINTY_MEASURE_WITH_UNIT (LENGTH_MEASURE( 1.000000000000000082E-05 ), #221, 'distance_accuracy_value', 'NONE');
#72 = DIRECTION ( 'NONE',  ( 1.000000000000000000, 0.0000000000000000000, 0.0000000000000000000 ) ) ;
#73 = DIRECTION ( 'NONE',  ( -3.491481338843133355E-15, 1.224646799147352961E-16, -1.000000000000000000 ) ) ;
#74 = COORDINATED_UNIVERSAL_TIME_OFFSET ( 1, 0, .AHEAD. ) ;
#75 = CALENDAR_DATE ( 2021, 29, 11 ) ;
#76 = EDGE_LOOP ( 'NONE', ( #255 ) ) ;
#77 = LOCAL_TIME ( 15, 58, 44.00000000000000000, #200 ) ;
#78 = CC_DESIGN_PERSON_AND_ORGANIZATION_ASSIGNMENT ( #275, #138, ( #42 ) ) ;
#79 = ORIENTED_EDGE ( 'NONE', *, *, #265, .T. ) ;
#80 = CARTESIAN_POINT ( 'NONE',  ( 2.444036937190193349E-14, -8.572527594031471218E-16, 7.000000000000000000 ) ) ;
#81 = CC_DESIGN_PERSON_AND_ORGANIZATION_ASSIGNMENT ( #44, #199, ( #295 ) ) ;
#82 = CIRCLE ( 'NONE', #243, 1.200000000000003286 ) ;
#83 = EDGE_LOOP ( 'NONE', ( #4 ) ) ;
#84 = DIRECTION ( 'NONE',  ( 3.491481338843133355E-15, -1.224646799147352961E-16, 1.000000000000000000 ) ) ;
#85 = DIRECTION ( 'NONE',  ( -3.491481338843133355E-15, 1.224646799147352961E-16, -1.000000000000000000 ) ) ;
#86 = CARTESIAN_POINT ( 'NONE',  ( 1.326762908760390423E-13, 8.998558695971099120E-33, 38.00000000000000000 ) ) ;
#87 = ADVANCED_FACE ( 'NONE', ( #113 ), #244, .T. ) ;
#88 = CARTESIAN_POINT ( 'NONE',  ( 7.011116621881576082E-14, -2.459168672595856781E-15, 20.08063610102134433 ) ) ;
#89 = FACE_OUTER_BOUND ( 'NONE', #168, .T. ) ;
#90 = MANIFOLD_SOLID_BREP ( 'Corps-Déplacer/Copier1[2]', #91 ) ;
#91 = CLOSED_SHELL ( 'NONE', ( #114, #12, #94, #87 ) ) ;
#92 = AXIS2_PLACEMENT_3D ( 'NONE', #88, #60, #153 ) ;
#93 = COORDINATED_UNIVERSAL_TIME_OFFSET ( 1, 0, .AHEAD. ) ;
#94 = ADVANCED_FACE ( 'NONE', ( #192, #11 ), #110, .T. ) ;
#95 =( NAMED_UNIT ( * ) PLANE_ANGLE_UNIT ( ) SI_UNIT ( $, .RADIAN. ) );
#96 = MECHANICAL_CONTEXT ( 'NONE', #210, 'mechanical' ) ;
#97 = APPROVAL_PERSON_ORGANIZATION ( #117, #216, #162 ) ;
#98 = PERSON_AND_ORGANIZATION_ROLE ( 'classification_officer' ) ;
#99 = CARTESIAN_POINT ( 'NONE',  ( 8.728703347107835360E-16, 0.7084999999999991305, 0.2500000000000000555 ) ) ;
#100 = EDGE_LOOP ( 'NONE', ( #1 ) ) ;
#101 = EDGE_LOOP ( 'NONE', ( #257 ) ) ;
#102 = AXIS2_PLACEMENT_3D ( 'NONE', #130, #7, #241 ) ;
#103 = DIRECTION ( 'NONE',  ( -5.436640633414927656E-31, -1.000000000000000000, -1.530278295674672846E-16 ) ) ;
#104 = DIRECTION ( 'NONE',  ( -3.491481338843133355E-15, 1.224646799147352961E-16, -1.000000000000000000 ) ) ;
#105 = EDGE_LOOP ( 'NONE', ( #147 ) ) ;
#106 = EDGE_CURVE ( 'NONE', #228, #228, #45, .T. ) ;
#107 = AXIS2_PLACEMENT_3D ( 'NONE', #132, #287, #195 ) ;
#108 = DIRECTION ( 'NONE',  ( -4.275831445896957731E-31, -1.000000000000000000, -1.224646799147352961E-16 ) ) ;
#109 = DIRECTION ( 'NONE',  ( -4.275831445896957731E-31, -1.000000000000000000, -1.224646799147352961E-16 ) ) ;
#110 = CYLINDRICAL_SURFACE ( 'NONE', #189, 0.7084999999999995746 ) ;
#111 = CC_DESIGN_APPROVAL ( #216, ( #42 ) ) ;
#112 = DIRECTION ( 'NONE',  ( 4.275831445896957731E-31, 1.000000000000000000, 1.224646799147352961E-16 ) ) ;
#113 = FACE_OUTER_BOUND ( 'NONE', #187, .T. ) ;
#114 = ADVANCED_FACE ( 'NONE', ( #36 ), #260, .F. ) ;
#115 = APPLICATION_PROTOCOL_DEFINITION ( 'international standard', 'config_control_design', 1994, #210 ) ;
#116 = AXIS2_PLACEMENT_3D ( 'NONE', #5, #104, #112 ) ;
#117 = PERSON_AND_ORGANIZATION ( #190, #6 ) ;
#118 = ADVANCED_FACE ( 'NONE', ( #37 ), #263, .F. ) ;
#119 = CARTESIAN_POINT ( 'NONE',  ( 2.488485496773473420E-14, -8.728432154124037730E-16, 7.127305734356316869 ) ) ;
#120 = COORDINATED_UNIVERSAL_TIME_OFFSET ( 1, 0, .AHEAD. ) ;
#121 = FACE_OUTER_BOUND ( 'NONE', #105, .T. ) ;
#122 = CIRCLE ( 'NONE', #61, 0.6349999999999990097 ) ;
#123 = APPROVAL_ROLE ( '' ) ;
#124 = SECURITY_CLASSIFICATION_LEVEL ( 'unclassified' ) ;
#125 = ORIENTED_EDGE ( 'NONE', *, *, #273, .T. ) ;
#126 = CARTESIAN_POINT ( 'NONE',  ( 8.728703347107831416E-16, -3.061616997868381785E-17, 0.2499999999999999445 ) ) ;
#127 = AXIS2_PLACEMENT_3D ( 'NONE', #19, #225, #72 ) ;
#128 = FACE_OUTER_BOUND ( 'NONE', #29, .T. ) ;
#129 = FACE_OUTER_BOUND ( 'NONE', #188, .T. ) ;
#130 = CARTESIAN_POINT ( 'NONE',  ( 1.316288464743861212E-13, -4.616918432785520292E-15, 37.69999999999999574 ) ) ;
#131 = AXIS2_PLACEMENT_3D ( 'NONE', #215, #84, #108 ) ;
#132 = CARTESIAN_POINT ( 'NONE',  ( 2.444036937190193349E-14, -8.572527594031471218E-16, 7.000000000000000000 ) ) ;
#133 = DIRECTION ( 'NONE',  ( 5.436640633414927656E-31, 1.000000000000000000, 1.530278295674672846E-16 ) ) ;
#134 = FACE_BOUND ( 'NONE', #76, .T. ) ;
#135 = FACE_OUTER_BOUND ( 'NONE', #101, .T. ) ;
#136 = DESIGN_CONTEXT ( 'detailed design', #179, 'design' ) ;
#137 = DIRECTION ( 'NONE',  ( 0.0000000000000000000, 1.000000000000000000, 0.0000000000000000000 ) ) ;
#138 = PERSON_AND_ORGANIZATION_ROLE ( 'creator' ) ;
#139 = DIRECTION ( 'NONE',  ( -3.491481338843133355E-15, 1.224646799147352961E-16, -1.000000000000000000 ) ) ;
#140 = APPROVAL_STATUS ( 'not_yet_approved' ) ;
#141 = AXIS2_PLACEMENT_3D ( 'NONE', #175, #217, #67 ) ;
#142 = CARTESIAN_POINT ( 'NONE',  ( 5.237222008264700033E-14, -1.734723475976807094E-15, 15.00000000000000000 ) ) ;
#143 = ORIENTED_EDGE ( 'NONE', *, *, #39, .F. ) ;
#144 = AXIS2_PLACEMENT_3D ( 'NONE', #18, #268, #197 ) ;
#145 = PRODUCT_RELATED_PRODUCT_CATEGORY ( 'detail', '', ( #295 ) ) ;
#146 = DIRECTION ( 'NONE',  ( 4.275831445896957731E-31, 1.000000000000000000, 1.224646799147352961E-16 ) ) ;
#147 = ORIENTED_EDGE ( 'NONE', *, *, #39, .T. ) ;
#148 = DIRECTION ( 'NONE',  ( 0.0000000000000000000, 1.000000000000000000, 0.0000000000000000000 ) ) ;
#149 = EDGE_CURVE ( 'NONE', #296, #296, #53, .T. ) ;
#150 = LOCAL_TIME ( 15, 58, 44.00000000000000000, #163 ) ;
#151 = CARTESIAN_POINT ( 'NONE',  ( 0.0000000000000000000, 0.0000000000000000000, 0.0000000000000000000 ) ) ;
#152 = FACE_BOUND ( 'NONE', #100, .T. ) ;
#153 = DIRECTION ( 'NONE',  ( 0.0000000000000000000, -1.000000000000000000, 0.0000000000000000000 ) ) ;
#154 = AXIS2_PLACEMENT_3D ( 'NONE', #86, #65, #290 ) ;
#155 = DIRECTION ( 'NONE',  ( 4.275831445896956855E-31, 1.000000000000000000, 1.224646799147352961E-16 ) ) ;
#156 = VERTEX_POINT ( 'NONE', #294 ) ;
#157 = SHAPE_DEFINITION_REPRESENTATION ( #291, #17 ) ;
#158 = CARTESIAN_POINT ( 'NONE',  ( 5.237222008264700033E-14, 0.6349999999999984546, 15.00000000000000000 ) ) ;
#159 = DATE_AND_TIME ( #277, #150 ) ;
#160 = CARTESIAN_POINT ( 'NONE',  ( 5.358479882634335789E-14, 0.6653844939755789722, 15.34729635533384595 ) ) ;
#161 = DATE_TIME_ROLE ( 'classification_date' ) ;
#162 = APPROVAL_ROLE ( '' ) ;
#163 = COORDINATED_UNIVERSAL_TIME_OFFSET ( 1, 0, .AHEAD. ) ;
#164 = ADVANCED_FACE ( 'NONE', ( #152, #63 ), #69, .T. ) ;
#165 = VERTEX_POINT ( 'NONE', #180 ) ;
#166 = EDGE_LOOP ( 'NONE', ( #125 ) ) ;
#167 = EDGE_LOOP ( 'NONE', ( #283 ) ) ;
#168 = EDGE_LOOP ( 'NONE', ( #258 ) ) ;
#169 = EDGE_CURVE ( 'NONE', #46, #46, #301, .T. ) ;
#170 = FACE_OUTER_BOUND ( 'NONE', #31, .T. ) ;
#171 = AXIS2_PLACEMENT_3D ( 'NONE', #220, #214, #264 ) ;
#172 = CARTESIAN_POINT ( 'NONE',  ( 2.444036937190193349E-14, 5.312899030079616125E-33, 7.000000000000000000 ) ) ;
#173 = CARTESIAN_POINT ( 'NONE',  ( -2.412263470343481044E-31, 8.461081274560281259E-33, -6.908997174084166477E-17 ) ) ;
#174 = AXIS2_PLACEMENT_3D ( 'NONE', #191, #211, #148 ) ;
#175 = CARTESIAN_POINT ( 'NONE',  ( 2.488485496773473420E-14, -8.728432154124037730E-16, 7.127305734356316869 ) ) ;
#176 = DIRECTION ( 'NONE',  ( -3.491481338843133355E-15, 1.224646799147352961E-16, -1.000000000000000000 ) ) ;
#177 = DIRECTION ( 'NONE',  ( 4.275831445896957731E-31, 1.000000000000000000, 1.224646799147352961E-16 ) ) ;
#178 = CLOSED_SHELL ( 'NONE', ( #47, #269, #34, #9, #164, #281, #293, #118 ) ) ;
#179 = APPLICATION_CONTEXT ( 'configuration controlled 3d designs of mechanical parts and assemblies' ) ;
#180 = CARTESIAN_POINT ( 'NONE',  ( 2.444036937190193349E-14, 0.7084999999999991305, 7.000000000000000000 ) ) ;
#181 = LOCAL_TIME ( 15, 58, 44.00000000000000000, #74 ) ;
#182 = APPROVAL_ROLE ( '' ) ;
#183 = DIRECTION ( 'NONE',  ( 4.275831445896957731E-31, 1.000000000000000000, 1.224646799147353207E-16 ) ) ;
#184 = ORIENTED_EDGE ( 'NONE', *, *, #273, .F. ) ;
#185 = ORIENTED_EDGE ( 'NONE', *, *, #50, .T. ) ;
#186 = DIRECTION ( 'NONE',  ( 0.0000000000000000000, 1.000000000000000000, 0.0000000000000000000 ) ) ;
#187 = EDGE_LOOP ( 'NONE', ( #35 ) ) ;
#188 = EDGE_LOOP ( 'NONE', ( #282 ) ) ;
#189 = AXIS2_PLACEMENT_3D ( 'NONE', #151, #176, #177 ) ;
#190 = PERSON ( 'UNSPECIFIED', 'UNSPECIFIED', 'UNSPECIFIED', ('UNSPECIFIED'), ('UNSPECIFIED'), ('UNSPECIFIED') ) ;
#191 = CARTESIAN_POINT ( 'NONE',  ( 7.011116621881576082E-14, -2.459168672595856781E-15, 20.08063610102134433 ) ) ;
#192 = FACE_OUTER_BOUND ( 'NONE', #83, .T. ) ;
#193 = DIRECTION ( 'NONE',  ( -3.491481338843133355E-15, 1.224646799147352961E-16, -1.000000000000000000 ) ) ;
#194 = APPROVAL ( #298, 'UNSPECIFIED' ) ;
#195 = DIRECTION ( 'NONE',  ( 0.0000000000000000000, 1.000000000000000000, 0.0000000000000000000 ) ) ;
#196 = CARTESIAN_POINT ( 'NONE',  ( 1.326762908760390423E-13, 1.199999999999998845, 38.00000000000000000 ) ) ;
#197 = DIRECTION ( 'NONE',  ( 0.0000000000000000000, 1.000000000000000000, 0.0000000000000000000 ) ) ;
#198 = PERSON_AND_ORGANIZATION_ROLE ( 'design_supplier' ) ;
#199 = PERSON_AND_ORGANIZATION_ROLE ( 'design_owner' ) ;
#200 = COORDINATED_UNIVERSAL_TIME_OFFSET ( 1, 0, .AHEAD. ) ;
#201 = CONICAL_SURFACE ( 'NONE', #144, 1.200000000000003286, 0.7853981633974453924 ) ;
#202 = VERTEX_POINT ( 'NONE', #270 ) ;
#203 = CONICAL_SURFACE ( 'NONE', #141, 0.6349999999999990097, 0.5235987755982909331 ) ;
#204 = DATE_AND_TIME ( #75, #274 ) ;
#205 = EDGE_LOOP ( 'NONE', ( #143 ) ) ;
#206 = FACE_OUTER_BOUND ( 'NONE', #237, .T. ) ;
#207 = DIRECTION ( 'NONE',  ( 3.491481338843133355E-15, -1.224646799147352961E-16, 1.000000000000000000 ) ) ;
#208 = CYLINDRICAL_SURFACE ( 'NONE', #116, 0.6349999999999996758 ) ;
#209 = EDGE_LOOP ( 'NONE', ( #232 ) ) ;
#210 = APPLICATION_CONTEXT ( 'configuration controlled 3d designs of mechanical parts and assemblies' ) ;
#211 = DIRECTION ( 'NONE',  ( -3.491481338843133355E-15, 1.224646799147352961E-16, -1.000000000000000000 ) ) ;
#212 = CIRCLE ( 'NONE', #102, 1.500000000000003331 ) ;
#213 = AXIS2_PLACEMENT_3D ( 'NONE', #24, #139, #183 ) ;
#214 = DIRECTION ( 'NONE',  ( 3.491481338843133355E-15, -1.224646799147352961E-16, 1.000000000000000000 ) ) ;
#215 = CARTESIAN_POINT ( 'NONE',  ( 2.444036937190193349E-14, 5.312899030079616125E-33, 7.000000000000000000 ) ) ;
#216 = APPROVAL ( #299, 'UNSPECIFIED' ) ;
#217 = DIRECTION ( 'NONE',  ( -3.491481338843133355E-15, 1.224646799147352961E-16, -1.000000000000000000 ) ) ;
#218 = CC_DESIGN_APPROVAL ( #20, ( #56 ) ) ;
#219 = CONICAL_SURFACE ( 'NONE', #289, 0.7084999999999991305, 0.5235987755982927094 ) ;
#220 = CARTESIAN_POINT ( 'NONE',  ( -1.206131735171740522E-31, 4.230540637280140629E-33, -3.454498587042083238E-17 ) ) ;
#221 =( LENGTH_UNIT ( ) NAMED_UNIT ( * ) SI_UNIT ( .MILLI., .METRE. ) );
#222 = CC_DESIGN_SECURITY_CLASSIFICATION ( #234, ( #56 ) ) ;
#223 = VERTEX_POINT ( 'NONE', #21 ) ;
#224 = EDGE_CURVE ( 'NONE', #246, #246, #267, .T. ) ;
#225 = DIRECTION ( 'NONE',  ( 0.0000000000000000000, 0.0000000000000000000, 1.000000000000000000 ) ) ;
#226 = PERSON_AND_ORGANIZATION ( #190, #6 ) ;
#227 = CC_DESIGN_PERSON_AND_ORGANIZATION_ASSIGNMENT ( #271, #98, ( #234 ) ) ;
#228 = VERTEX_POINT ( 'NONE', #302 ) ;
#229 = CALENDAR_DATE ( 2021, 29, 11 ) ;
#230 = CIRCLE ( 'NONE', #253, 0.7085000000000000187 ) ;
#231 = CIRCLE ( 'NONE', #27, 0.7084999999999991305 ) ;
#232 = ORIENTED_EDGE ( 'NONE', *, *, #106, .T. ) ;
#233 = EDGE_LOOP ( 'NONE', ( #259 ) ) ;
#234 = SECURITY_CLASSIFICATION ( '', '', #124 ) ;
#235 = FACE_OUTER_BOUND ( 'NONE', #59, .T. ) ;
#236 = EDGE_LOOP ( 'NONE', ( #285 ) ) ;
#237 = EDGE_LOOP ( 'NONE', ( #55 ) ) ;
#238 = PLANE ( 'NONE',  #131 ) ;
#239 = CIRCLE ( 'NONE', #174, 1.499999999999997780 ) ;
#240 = DIRECTION ( 'NONE',  ( -3.491481338843133355E-15, 1.224646799147352961E-16, -1.000000000000000000 ) ) ;
#241 = DIRECTION ( 'NONE',  ( 0.0000000000000000000, 1.000000000000000000, 0.0000000000000000000 ) ) ;
#242 = DIRECTION ( 'NONE',  ( 0.0000000000000000000, 1.000000000000000000, 0.0000000000000000000 ) ) ;
#243 = AXIS2_PLACEMENT_3D ( 'NONE', #14, #40, #242 ) ;
#244 = PLANE ( 'NONE',  #3 ) ;
#245 = FACE_BOUND ( 'NONE', #166, .T. ) ;
#246 = VERTEX_POINT ( 'NONE', #160 ) ;
#247 = FACE_OUTER_BOUND ( 'NONE', #205, .T. ) ;
#248 = CALENDAR_DATE ( 2021, 29, 11 ) ;
#249 = CC_DESIGN_PERSON_AND_ORGANIZATION_ASSIGNMENT ( #300, #43, ( #56 ) ) ;
#250 =( NAMED_UNIT ( * ) SI_UNIT ( $, .STERADIAN. ) SOLID_ANGLE_UNIT ( ) );
#251 = DATE_AND_TIME ( #248, #181 ) ;
#252 = PERSON_AND_ORGANIZATION ( #190, #6 ) ;
#253 = AXIS2_PLACEMENT_3D ( 'NONE', #80, #32, #186 ) ;
#254 = AXIS2_PLACEMENT_3D ( 'NONE', #173, #85, #155 ) ;
#255 = ORIENTED_EDGE ( 'NONE', *, *, #303, .T. ) ;
#256 = ORIENTED_EDGE ( 'NONE', *, *, #224, .T. ) ;
#257 = ORIENTED_EDGE ( 'NONE', *, *, #50, .F. ) ;
#258 = ORIENTED_EDGE ( 'NONE', *, *, #169, .T. ) ;
#259 = ORIENTED_EDGE ( 'NONE', *, *, #16, .T. ) ;
#260 = PLANE ( 'NONE',  #171 ) ;
#261 = DIRECTION ( 'NONE',  ( 0.0000000000000000000, 1.000000000000000000, 0.0000000000000000000 ) ) ;
#262 = CC_DESIGN_PERSON_AND_ORGANIZATION_ASSIGNMENT ( #226, #198, ( #56 ) ) ;
#263 = PLANE ( 'NONE',  #154 ) ;
#264 = DIRECTION ( 'NONE',  ( -4.275831445896957731E-31, -1.000000000000000000, -1.224646799147352961E-16 ) ) ;
#265 = EDGE_CURVE ( 'NONE', #297, #297, #231, .T. ) ;
#266 = DIRECTION ( 'NONE',  ( -3.491481338843133355E-15, 1.224646799147352961E-16, -1.000000000000000000 ) ) ;
#267 = CIRCLE ( 'NONE', #286, 0.6653844939755807486 ) ;
#268 = DIRECTION ( 'NONE',  ( -3.491481338843133355E-15, 1.224646799147352961E-16, -1.000000000000000000 ) ) ;
#269 = ADVANCED_FACE ( 'NONE', ( #288, #134 ), #203, .T. ) ;
#270 = CARTESIAN_POINT ( 'NONE',  ( 7.011116621881576082E-14, 1.499999999999995559, 20.08063610102134433 ) ) ;
#271 = PERSON_AND_ORGANIZATION ( #190, #6 ) ;
#272 = CARTESIAN_POINT ( 'NONE',  ( 2.444036937190193349E-14, 0.7084999999999991305, 7.000000000000000000 ) ) ;
#273 = EDGE_CURVE ( 'NONE', #41, #41, #82, .T. ) ;
#274 = LOCAL_TIME ( 15, 58, 44.00000000000000000, #120 ) ;
#275 = PERSON_AND_ORGANIZATION ( #190, #6 ) ;
#276 = APPLICATION_PROTOCOL_DEFINITION ( 'international standard', 'config_control_design', 1994, #179 ) ;
#277 = CALENDAR_DATE ( 2021, 29, 11 ) ;
#278 = EDGE_LOOP ( 'NONE', ( #185 ) ) ;
#279 = CC_DESIGN_APPROVAL ( #194, ( #234 ) ) ;
#280 = ORIENTED_EDGE ( 'NONE', *, *, #149, .T. ) ;
#281 = ADVANCED_FACE ( 'NONE', ( #135, #121 ), #22, .T. ) ;
#282 = ORIENTED_EDGE ( 'NONE', *, *, #303, .F. ) ;
#283 = ORIENTED_EDGE ( 'NONE', *, *, #106, .F. ) ;
#284 = MANIFOLD_SOLID_BREP ( 'Corps-Déplacer/Copier1[1]', #178 ) ;
#285 = ORIENTED_EDGE ( 'NONE', *, *, #169, .F. ) ;
#286 = AXIS2_PLACEMENT_3D ( 'NONE', #38, #193, #261 ) ;
#287 = DIRECTION ( 'NONE',  ( -3.491481338843133355E-15, 1.224646799147352961E-16, -1.000000000000000000 ) ) ;
#288 = FACE_OUTER_BOUND ( 'NONE', #236, .T. ) ;
#289 = AXIS2_PLACEMENT_3D ( 'NONE', #126, #207, #103 ) ;
#290 = DIRECTION ( 'NONE',  ( 4.275831445896957731E-31, 1.000000000000000000, 1.224646799147352961E-16 ) ) ;
#291 = PRODUCT_DEFINITION_SHAPE ( 'NONE', 'NONE',  #42 ) ;
#292 = CARTESIAN_POINT ( 'NONE',  ( 5.237222008264700033E-14, -1.836970198721029194E-15, 15.00000000000000000 ) ) ;
#293 = ADVANCED_FACE ( 'NONE', ( #247, #245 ), #201, .T. ) ;
#294 = CARTESIAN_POINT ( 'NONE',  ( 2.488485496773473420E-14, 0.6349999999999982325, 7.127305734356316869 ) ) ;
#295 = PRODUCT ( '957425', '957425', '', ( #96 ) ) ;
#296 = VERTEX_POINT ( 'NONE', #158 ) ;
#297 = VERTEX_POINT ( 'NONE', #99 ) ;
#298 = APPROVAL_STATUS ( 'not_yet_approved' ) ;
#299 = APPROVAL_STATUS ( 'not_yet_approved' ) ;
#300 = PERSON_AND_ORGANIZATION ( #190, #6 ) ;
#301 = CIRCLE ( 'NONE', #107, 0.7085000000000000187 ) ;
#302 = CARTESIAN_POINT ( 'NONE',  ( -4.276423536147513034E-47, 0.5641624327025948071, 0.0000000000000000000 ) ) ;
#303 = EDGE_CURVE ( 'NONE', #156, #156, #122, .T. ) ;
ENDSEC;
END-ISO-10303-21;
