ISO-10303-21;
HEADER;
FILE_DESCRIPTION (( 'STEP AP203' ),
    '1' );
FILE_NAME ('957326.step',
    '2021-11-30T06:45:11',
    ( '' ),
    ( '' ),
    'SwSTEP 2.0',
    'SolidWorks 2019',
    '' );
FILE_SCHEMA (( 'CONFIG_CONTROL_DESIGN' ));
ENDSEC;

DATA;
#1 = ADVANCED_FACE ( 'NONE', ( #180, #28 ), #29, .T. ) ;
#2 = DATE_AND_TIME ( #303, #263 ) ;
#3 = EDGE_CURVE ( 'NONE', #150, #150, #38, .T. ) ;
#4 = PERSON_AND_ORGANIZATION ( #144, #280 ) ;
#5 = DIRECTION ( 'NONE',  ( -3.491481338843133355E-15, 1.224646799147353207E-16, -1.000000000000000000 ) ) ;
#6 = AXIS2_PLACEMENT_3D ( 'NONE', #256, #145, #36 ) ;
#7 = DATE_TIME_ROLE ( 'classification_date' ) ;
#8 = DIRECTION ( 'NONE',  ( 4.275831445896957731E-31, 1.000000000000000000, 1.224646799147353207E-16 ) ) ;
#9 = DIRECTION ( 'NONE',  ( 4.275831445896958607E-31, 1.000000000000000000, 1.224646799147353454E-16 ) ) ;
#10 = FACE_BOUND ( 'NONE', #156, .T. ) ;
#11 = AXIS2_PLACEMENT_3D ( 'NONE', #111, #58, #295 ) ;
#12 = DIRECTION ( 'NONE',  ( -3.491481338843133355E-15, 1.224646799147353207E-16, -1.000000000000000000 ) ) ;
#13 = CARTESIAN_POINT ( 'NONE',  ( 1.745740669421566678E-13, -6.123233995736766085E-15, 50.00000000000000000 ) ) ;
#14 = CARTESIAN_POINT ( 'NONE',  ( 0.0000000000000000000, 1.024162432702589776, 0.0000000000000000000 ) ) ;
#15 = AXIS2_PLACEMENT_3D ( 'NONE', #211, #12, #267 ) ;
#16 = DIRECTION ( 'NONE',  ( 0.0000000000000000000, 1.000000000000000000, 0.0000000000000000000 ) ) ;
#17 = VERTEX_POINT ( 'NONE', #121 ) ;
#18 =( LENGTH_UNIT ( ) NAMED_UNIT ( * ) SI_UNIT ( .MILLI., .METRE. ) );
#19 = CIRCLE ( 'NONE', #199, 1.015000000000000124 ) ;
#20 = APPROVAL_DATE_TIME ( #43, #219 ) ;
#21 = ORIENTED_EDGE ( 'NONE', *, *, #35, .T. ) ;
#22 = ORIENTED_EDGE ( 'NONE', *, *, #261, .T. ) ;
#23 = APPLICATION_PROTOCOL_DEFINITION ( 'international standard', 'config_control_design', 1994, #170 ) ;
#24 = DIRECTION ( 'NONE',  ( 3.491481338843133355E-15, -1.224646799147353207E-16, 1.000000000000000000 ) ) ;
#25 = PRODUCT_DEFINITION ( 'UNKNOWN', '', #148, #33 ) ;
#26 = DIRECTION ( 'NONE',  ( 1.000000000000000000, 0.0000000000000000000, 0.0000000000000000000 ) ) ;
#27 = EDGE_LOOP ( 'NONE', ( #48 ) ) ;
#28 = FACE_OUTER_BOUND ( 'NONE', #136, .T. ) ;
#29 = CYLINDRICAL_SURFACE ( 'NONE', #198, 1.014999999999999458 ) ;
#30 = CARTESIAN_POINT ( 'NONE',  ( 3.584309283006850656E-14, -1.257206458976207460E-15, 10.26586979896182150 ) ) ;
#31 = CC_DESIGN_PERSON_AND_ORGANIZATION_ASSIGNMENT ( #291, #181, ( #135 ) ) ;
#32 = AXIS2_PLACEMENT_3D ( 'NONE', #85, #246, #9 ) ;
#33 = DESIGN_CONTEXT ( 'detailed design', #142, 'design' ) ;
#34 = CARTESIAN_POINT ( 'NONE',  ( 3.584309283006850656E-14, 1.014999999999997682, 10.26586979896182150 ) ) ;
#35 = EDGE_CURVE ( 'NONE', #37, #37, #288, .T. ) ;
#36 = DIRECTION ( 'NONE',  ( 4.944621166591131247E-31, 1.000000000000000000, 1.391787127709255369E-16 ) ) ;
#37 = VERTEX_POINT ( 'NONE', #74 ) ;
#38 = CIRCLE ( 'NONE', #179, 1.014999999999999014 ) ;
#39 = AXIS2_PLACEMENT_3D ( 'NONE', #189, #24, #274 ) ;
#40 = CC_DESIGN_PERSON_AND_ORGANIZATION_ASSIGNMENT ( #223, #228, ( #25 ) ) ;
#41 = FACE_OUTER_BOUND ( 'NONE', #222, .T. ) ;
#42 = FACE_OUTER_BOUND ( 'NONE', #78, .T. ) ;
#43 = DATE_AND_TIME ( #174, #233 ) ;
#44 = EDGE_LOOP ( 'NONE', ( #127 ) ) ;
#45 = AXIS2_PLACEMENT_3D ( 'NONE', #299, #215, #301 ) ;
#46 = EDGE_LOOP ( 'NONE', ( #50 ) ) ;
#47 = ADVANCED_FACE ( 'NONE', ( #230, #207 ), #133, .T. ) ;
#48 = ORIENTED_EDGE ( 'NONE', *, *, #35, .F. ) ;
#49 = APPROVAL ( #266, 'UNSPECIFIED' ) ;
#50 = ORIENTED_EDGE ( 'NONE', *, *, #119, .T. ) ;
#51 = SHAPE_DEFINITION_REPRESENTATION ( #96, #213 ) ;
#52 = ADVANCED_FACE ( 'NONE', ( #184 ), #298, .T. ) ;
#53 = CIRCLE ( 'NONE', #286, 1.045384493975580531 ) ;
#54 = MANIFOLD_SOLID_BREP ( 'Corps-Déplacer/Copier1[1]', #285 ) ;
#55 = APPROVAL_ROLE ( '' ) ;
#56 = CARTESIAN_POINT ( 'NONE',  ( 3.491481338843133355E-14, 8.762346530201850169E-33, 10.00000000000000000 ) ) ;
#57 = PERSON_AND_ORGANIZATION ( #144, #280 ) ;
#58 = DIRECTION ( 'NONE',  ( -3.491481338843133355E-15, 1.224646799147353207E-16, -1.000000000000000000 ) ) ;
#59 = APPLICATION_PROTOCOL_DEFINITION ( 'international standard', 'config_control_design', 1994, #142 ) ;
#60 = CIRCLE ( 'NONE', #11, 1.499999999999996669 ) ;
#61 = FACE_OUTER_BOUND ( 'NONE', #159, .T. ) ;
#62 = APPROVAL_PERSON_ORGANIZATION ( #4, #219, #152 ) ;
#63 = ADVANCED_FACE ( 'NONE', ( #61, #272 ), #252, .F. ) ;
#64 = CARTESIAN_POINT ( 'NONE',  ( 1.745740669421566678E-13, -6.123233995736766085E-15, 50.00000000000000000 ) ) ;
#65 = CC_DESIGN_PERSON_AND_ORGANIZATION_ASSIGNMENT ( #76, #106, ( #148 ) ) ;
#66 = DIRECTION ( 'NONE',  ( -3.491481338843133355E-15, 1.224646799147353207E-16, -1.000000000000000000 ) ) ;
#67 = CARTESIAN_POINT ( 'NONE',  ( 8.004412654963518252E-14, 1.499999999999994005, 22.92554900956652020 ) ) ;
#68 = AXIS2_PLACEMENT_3D ( 'NONE', #275, #120, #278 ) ;
#69 = FACE_BOUND ( 'NONE', #44, .T. ) ;
#70 = DIRECTION ( 'NONE',  ( -3.491481338843133355E-15, 1.224646799147353207E-16, -1.000000000000000000 ) ) ;
#71 = VERTEX_POINT ( 'NONE', #171 ) ;
#72 = CLOSED_SHELL ( 'NONE', ( #164, #151, #177, #52 ) ) ;
#73 = EDGE_CURVE ( 'NONE', #95, #95, #60, .T. ) ;
#74 = CARTESIAN_POINT ( 'NONE',  ( 3.491481338843133355E-14, 1.168499999999994099, 10.00000000000000000 ) ) ;
#75 = DATE_TIME_ROLE ( 'creation_date' ) ;
#76 = PERSON_AND_ORGANIZATION ( #144, #280 ) ;
#77 = CIRCLE ( 'NONE', #6, 1.168499999999994099 ) ;
#78 = EDGE_LOOP ( 'NONE', ( #269 ) ) ;
#79 = ORIENTED_EDGE ( 'NONE', *, *, #119, .F. ) ;
#80 = ADVANCED_FACE ( 'NONE', ( #187, #234 ), #101, .T. ) ;
#81 = ORIENTED_EDGE ( 'NONE', *, *, #73, .T. ) ;
#82 = CONICAL_SURFACE ( 'NONE', #45, 1.499999999999996669, 0.1745329251994264530 ) ;
#83 = EDGE_LOOP ( 'NONE', ( #22 ) ) ;
#84 = DIRECTION ( 'NONE',  ( 0.0000000000000000000, 1.000000000000000000, 0.0000000000000000000 ) ) ;
#85 = CARTESIAN_POINT ( 'NONE',  ( 0.0000000000000000000, 0.0000000000000000000, 0.0000000000000000000 ) ) ;
#86 = ADVANCED_FACE ( 'NONE', ( #297, #10 ), #227, .T. ) ;
#87 = PRODUCT_RELATED_PRODUCT_CATEGORY ( 'detail', '', ( #157 ) ) ;
#88 = EDGE_LOOP ( 'NONE', ( #79 ) ) ;
#89 = AXIS2_PLACEMENT_3D ( 'NONE', #108, #292, #84 ) ;
#90 = PLANE ( 'NONE',  #39 ) ;
#91 = CARTESIAN_POINT ( 'NONE',  ( 8.728703347107827472E-16, -3.061616997868381169E-17, 0.2499999999999998335 ) ) ;
#92 = FACE_OUTER_BOUND ( 'NONE', #289, .T. ) ;
#93 = AXIS2_PLACEMENT_3D ( 'NONE', #94, #143, #169 ) ;
#94 = CARTESIAN_POINT ( 'NONE',  ( 3.491481338843133355E-14, -1.224646799147353256E-15, 10.00000000000000000 ) ) ;
#95 = VERTEX_POINT ( 'NONE', #67 ) ;
#96 = PRODUCT_DEFINITION_SHAPE ( 'NONE', 'NONE',  #25 ) ;
#97 = MECHANICAL_CONTEXT ( 'NONE', #170, 'mechanical' ) ;
#98 = ADVANCED_FACE ( 'NONE', ( #210 ), #90, .F. ) ;
#99 = CARTESIAN_POINT ( 'NONE',  ( 0.0000000000000000000, 0.0000000000000000000, 0.0000000000000000000 ) ) ;
#100 = APPROVAL ( #293, 'UNSPECIFIED' ) ;
#101 = CONICAL_SURFACE ( 'NONE', #147, 1.200000000000001732, 0.7853981633974453924 ) ;
#102 = ORIENTED_EDGE ( 'NONE', *, *, #158, .T. ) ;
#103 = ORIENTED_EDGE ( 'NONE', *, *, #73, .F. ) ;
#104 = CALENDAR_DATE ( 2021, 30, 11 ) ;
#105 = EDGE_LOOP ( 'NONE', ( #153 ) ) ;
#106 = PERSON_AND_ORGANIZATION_ROLE ( 'design_supplier' ) ;
#107 = AXIS2_PLACEMENT_3D ( 'NONE', #257, #240, #212 ) ;
#108 = CARTESIAN_POINT ( 'NONE',  ( 1.735266225405037467E-13, -6.086494591762345225E-15, 49.70000000000000284 ) ) ;
#109 = PERSON_AND_ORGANIZATION ( #144, #280 ) ;
#110 = ORIENTED_EDGE ( 'NONE', *, *, #172, .F. ) ;
#111 = CARTESIAN_POINT ( 'NONE',  ( 8.004412654963518252E-14, -2.807570021326141032E-15, 22.92554900956652020 ) ) ;
#112 = AXIS2_PLACEMENT_3D ( 'NONE', #226, #208, #116 ) ;
#113 =( GEOMETRIC_REPRESENTATION_CONTEXT ( 3 ) GLOBAL_UNCERTAINTY_ASSIGNED_CONTEXT ( ( #188 ) ) GLOBAL_UNIT_ASSIGNED_CONTEXT ( ( #18, #162, #201 ) ) REPRESENTATION_CONTEXT ( 'NONE', 'WORKASPACE' ) );
#114 = CARTESIAN_POINT ( 'NONE',  ( 3.584309283006850656E-14, -1.257206458976207460E-15, 10.26586979896182150 ) ) ;
#115 = EDGE_CURVE ( 'NONE', #146, #146, #53, .T. ) ;
#116 = DIRECTION ( 'NONE',  ( 4.275831445896958607E-31, 1.000000000000000000, 1.224646799147353207E-16 ) ) ;
#117 = FACE_BOUND ( 'NONE', #105, .T. ) ;
#118 = CARTESIAN_POINT ( 'NONE',  ( 6.982962677686266711E-14, 1.014999999999997682, 20.00000000000000000 ) ) ;
#119 = EDGE_CURVE ( 'NONE', #236, #236, #154, .T. ) ;
#120 = DIRECTION ( 'NONE',  ( 3.491481338843133355E-15, -1.224646799147353207E-16, 1.000000000000000000 ) ) ;
#121 = CARTESIAN_POINT ( 'NONE',  ( 8.728703347107833388E-16, 1.168499999999994099, 0.2500000000000000000 ) ) ;
#122 = CC_DESIGN_PERSON_AND_ORGANIZATION_ASSIGNMENT ( #126, #206, ( #148 ) ) ;
#123 = DIRECTION ( 'NONE',  ( -4.944621166591131247E-31, -1.000000000000000000, -1.391787127709255369E-16 ) ) ;
#124 = ADVANCED_FACE ( 'NONE', ( #92 ), #192, .F. ) ;
#125 = LOCAL_TIME ( 7, 45, 11.00000000000000000, #262 ) ;
#126 = PERSON_AND_ORGANIZATION ( #144, #280 ) ;
#127 = ORIENTED_EDGE ( 'NONE', *, *, #115, .F. ) ;
#128 = CC_DESIGN_APPROVAL ( #49, ( #25 ) ) ;
#129 = ORIENTED_EDGE ( 'NONE', *, *, #172, .T. ) ;
#130 = APPROVAL_DATE_TIME ( #245, #49 ) ;
#131 = CC_DESIGN_DATE_AND_TIME_ASSIGNMENT ( #247, #7, ( #135 ) ) ;
#132 = COORDINATED_UNIVERSAL_TIME_OFFSET ( 1, 0, .AHEAD. ) ;
#133 = CYLINDRICAL_SURFACE ( 'NONE', #32, 1.499999999999999112 ) ;
#134 = APPROVAL_STATUS ( 'not_yet_approved' ) ;
#135 = SECURITY_CLASSIFICATION ( '', '', #204 ) ;
#136 = EDGE_LOOP ( 'NONE', ( #129 ) ) ;
#137 = DIRECTION ( 'NONE',  ( 0.0000000000000000000, 0.0000000000000000000, 1.000000000000000000 ) ) ;
#138 = DIRECTION ( 'NONE',  ( -3.491481338843133355E-15, 1.224646799147353207E-16, -1.000000000000000000 ) ) ;
#139 = DIRECTION ( 'NONE',  ( 0.0000000000000000000, 1.000000000000000000, 0.0000000000000000000 ) ) ;
#140 = CC_DESIGN_SECURITY_CLASSIFICATION ( #135, ( #148 ) ) ;
#141 = ORIENTED_EDGE ( 'NONE', *, *, #115, .T. ) ;
#142 = APPLICATION_CONTEXT ( 'configuration controlled 3d designs of mechanical parts and assemblies' ) ;
#143 = DIRECTION ( 'NONE',  ( -3.491481338843133355E-15, 1.224646799147353207E-16, -1.000000000000000000 ) ) ;
#144 = PERSON ( 'UNSPECIFIED', 'UNSPECIFIED', 'UNSPECIFIED', ('UNSPECIFIED'), ('UNSPECIFIED'), ('UNSPECIFIED') ) ;
#145 = DIRECTION ( 'NONE',  ( -3.491481338843133355E-15, 1.224646799147353207E-16, -1.000000000000000000 ) ) ;
#146 = VERTEX_POINT ( 'NONE', #239 ) ;
#147 = AXIS2_PLACEMENT_3D ( 'NONE', #64, #163, #139 ) ;
#148 = PRODUCT_DEFINITION_FORMATION_WITH_SPECIFIED_SOURCE ( 'ANY', '', #157, .NOT_KNOWN. ) ;
#149 = CARTESIAN_POINT ( 'NONE',  ( 6.982962677686266711E-14, -2.449293598294706513E-15, 20.00000000000000000 ) ) ;
#150 = VERTEX_POINT ( 'NONE', #34 ) ;
#151 = ADVANCED_FACE ( 'NONE', ( #117, #42 ), #209, .T. ) ;
#152 = APPROVAL_ROLE ( '' ) ;
#153 = ORIENTED_EDGE ( 'NONE', *, *, #158, .F. ) ;
#154 = CIRCLE ( 'NONE', #89, 1.500000000000001554 ) ;
#155 = EDGE_LOOP ( 'NONE', ( #103 ) ) ;
#156 = EDGE_LOOP ( 'NONE', ( #197 ) ) ;
#157 = PRODUCT ( '957326', '957326', '', ( #97 ) ) ;
#158 = EDGE_CURVE ( 'NONE', #259, #259, #203, .T. ) ;
#159 = EDGE_LOOP ( 'NONE', ( #110 ) ) ;
#160 = DIRECTION ( 'NONE',  ( -4.275831445896958607E-31, -1.000000000000000000, -1.224646799147353207E-16 ) ) ;
#161 = DIRECTION ( 'NONE',  ( 0.0000000000000000000, 1.000000000000000000, 0.0000000000000000000 ) ) ;
#162 =( NAMED_UNIT ( * ) PLANE_ANGLE_UNIT ( ) SI_UNIT ( $, .RADIAN. ) );
#163 = DIRECTION ( 'NONE',  ( -3.491481338843133355E-15, 1.224646799147353207E-16, -1.000000000000000000 ) ) ;
#164 = ADVANCED_FACE ( 'NONE', ( #281 ), #255, .F. ) ;
#165 = CARTESIAN_POINT ( 'NONE',  ( 7.104220552055901835E-14, -2.491825135286219831E-15, 20.34729635533384595 ) ) ;
#166 = AXIS2_PLACEMENT_3D ( 'NONE', #190, #195, #168 ) ;
#167 = FACE_OUTER_BOUND ( 'NONE', #250, .T. ) ;
#168 = DIRECTION ( 'NONE',  ( 4.275831445896958607E-31, 1.000000000000000000, 1.224646799147353207E-16 ) ) ;
#169 = DIRECTION ( 'NONE',  ( 0.0000000000000000000, 1.000000000000000000, 0.0000000000000000000 ) ) ;
#170 = APPLICATION_CONTEXT ( 'configuration controlled 3d designs of mechanical parts and assemblies' ) ;
#171 = CARTESIAN_POINT ( 'NONE',  ( 1.745740669421566678E-13, 1.199999999999995515, 50.00000000000000000 ) ) ;
#172 = EDGE_CURVE ( 'NONE', #194, #194, #19, .T. ) ;
#173 = CARTESIAN_POINT ( 'NONE',  ( 1.735266225405037467E-13, 1.499999999999995559, 49.70000000000000284 ) ) ;
#174 = CALENDAR_DATE ( 2021, 30, 11 ) ;
#175 = COORDINATED_UNIVERSAL_TIME_OFFSET ( 1, 0, .AHEAD. ) ;
#176 = APPROVAL_PERSON_ORGANIZATION ( #109, #100, #183 ) ;
#177 = ADVANCED_FACE ( 'NONE', ( #216, #167 ), #193, .T. ) ;
#178 = EDGE_LOOP ( 'NONE', ( #242 ) ) ;
#179 = AXIS2_PLACEMENT_3D ( 'NONE', #30, #66, #231 ) ;
#180 = FACE_OUTER_BOUND ( 'NONE', #178, .T. ) ;
#181 = PERSON_AND_ORGANIZATION_ROLE ( 'classification_officer' ) ;
#182 = ORIENTED_EDGE ( 'NONE', *, *, #273, .F. ) ;
#183 = APPROVAL_ROLE ( '' ) ;
#184 = FACE_OUTER_BOUND ( 'NONE', #27, .T. ) ;
#185 = AXIS2_PLACEMENT_3D ( 'NONE', #56, #270, #160 ) ;
#186 = AXIS2_PLACEMENT_3D ( 'NONE', #91, #217, #123 ) ;
#187 = FACE_OUTER_BOUND ( 'NONE', #88, .T. ) ;
#188 = UNCERTAINTY_MEASURE_WITH_UNIT (LENGTH_MEASURE( 1.000000000000000082E-05 ), #18, 'distance_accuracy_value', 'NONE');
#189 = CARTESIAN_POINT ( 'NONE',  ( 3.491481338843133355E-14, 8.762346530201850169E-33, 10.00000000000000000 ) ) ;
#190 = CARTESIAN_POINT ( 'NONE',  ( 1.745740669421566678E-13, 8.998558695971067645E-33, 50.00000000000000000 ) ) ;
#191 = APPROVAL_PERSON_ORGANIZATION ( #225, #49, #55 ) ;
#192 = PLANE ( 'NONE',  #166 ) ;
#193 = CYLINDRICAL_SURFACE ( 'NONE', #107, 1.168499999999994765 ) ;
#194 = VERTEX_POINT ( 'NONE', #118 ) ;
#195 = DIRECTION ( 'NONE',  ( -3.491481338843133355E-15, 1.224646799147353207E-16, -1.000000000000000000 ) ) ;
#196 = LOCAL_TIME ( 7, 45, 11.00000000000000000, #132 ) ;
#197 = ORIENTED_EDGE ( 'NONE', *, *, #3, .T. ) ;
#198 = AXIS2_PLACEMENT_3D ( 'NONE', #229, #138, #8 ) ;
#199 = AXIS2_PLACEMENT_3D ( 'NONE', #149, #70, #16 ) ;
#200 = EDGE_LOOP ( 'NONE', ( #287 ) ) ;
#201 =( NAMED_UNIT ( * ) SI_UNIT ( $, .STERADIAN. ) SOLID_ANGLE_UNIT ( ) );
#202 = EDGE_LOOP ( 'NONE', ( #264 ) ) ;
#203 = CIRCLE ( 'NONE', #296, 1.024162432702589776 ) ;
#204 = SECURITY_CLASSIFICATION_LEVEL ( 'unclassified' ) ;
#205 = DIRECTION ( 'NONE',  ( 0.0000000000000000000, 1.000000000000000000, 0.0000000000000000000 ) ) ;
#206 = PERSON_AND_ORGANIZATION_ROLE ( 'creator' ) ;
#207 = FACE_OUTER_BOUND ( 'NONE', #46, .T. ) ;
#208 = DIRECTION ( 'NONE',  ( -3.491481338843133355E-15, 1.224646799147353207E-16, -1.000000000000000000 ) ) ;
#209 = CONICAL_SURFACE ( 'NONE', #186, 1.168499999999994099, 0.5235987755982928205 ) ;
#210 = FACE_OUTER_BOUND ( 'NONE', #83, .T. ) ;
#211 = CARTESIAN_POINT ( 'NONE',  ( 3.491481338843133355E-14, -1.224646799147353256E-15, 10.00000000000000000 ) ) ;
#212 = DIRECTION ( 'NONE',  ( 4.275831445896959482E-31, 1.000000000000000000, 1.224646799147353207E-16 ) ) ;
#213 = ADVANCED_BREP_SHAPE_REPRESENTATION ( '957326', ( #54, #258, #290 ), #113 ) ;
#214 = AXIS2_PLACEMENT_3D ( 'NONE', #114, #251, #161 ) ;
#215 = DIRECTION ( 'NONE',  ( 3.491481338843133355E-15, -1.224646799147353207E-16, 1.000000000000000000 ) ) ;
#216 = FACE_OUTER_BOUND ( 'NONE', #294, .T. ) ;
#217 = DIRECTION ( 'NONE',  ( 3.491481338843133355E-15, -1.224646799147353207E-16, 1.000000000000000000 ) ) ;
#218 = CARTESIAN_POINT ( 'NONE',  ( -4.379145935456060738E-31, 1.535997627480475482E-32, -1.254237245016193192E-16 ) ) ;
#219 = APPROVAL ( #134, 'UNSPECIFIED' ) ;
#220 = APPROVAL_DATE_TIME ( #249, #100 ) ;
#221 = EDGE_LOOP ( 'NONE', ( #141 ) ) ;
#222 = EDGE_LOOP ( 'NONE', ( #81 ) ) ;
#223 = PERSON_AND_ORGANIZATION ( #144, #280 ) ;
#224 = CC_DESIGN_PERSON_AND_ORGANIZATION_ASSIGNMENT ( #57, #283, ( #157 ) ) ;
#225 = PERSON_AND_ORGANIZATION ( #144, #280 ) ;
#226 = CARTESIAN_POINT ( 'NONE',  ( 6.982962677686266711E-14, -2.602085213965210642E-15, 20.00000000000000000 ) ) ;
#227 = CONICAL_SURFACE ( 'NONE', #214, 1.014999999999999014, 0.5235987755982925984 ) ;
#228 = PERSON_AND_ORGANIZATION_ROLE ( 'creator' ) ;
#229 = CARTESIAN_POINT ( 'NONE',  ( 0.0000000000000000000, 0.0000000000000000000, 0.0000000000000000000 ) ) ;
#230 = FACE_OUTER_BOUND ( 'NONE', #155, .T. ) ;
#231 = DIRECTION ( 'NONE',  ( 0.0000000000000000000, 1.000000000000000000, 0.0000000000000000000 ) ) ;
#232 = CC_DESIGN_DATE_AND_TIME_ASSIGNMENT ( #2, #75, ( #25 ) ) ;
#233 = LOCAL_TIME ( 7, 45, 11.00000000000000000, #284 ) ;
#234 = FACE_BOUND ( 'NONE', #202, .T. ) ;
#235 = DIRECTION ( 'NONE',  ( -3.491481338843133355E-15, 1.224646799147353207E-16, -1.000000000000000000 ) ) ;
#236 = VERTEX_POINT ( 'NONE', #173 ) ;
#237 = CC_DESIGN_APPROVAL ( #100, ( #135 ) ) ;
#238 = VERTEX_POINT ( 'NONE', #279 ) ;
#239 = CARTESIAN_POINT ( 'NONE',  ( 7.104220552055901835E-14, 1.045384493975578311, 20.34729635533384595 ) ) ;
#240 = DIRECTION ( 'NONE',  ( -3.491481338843133355E-15, 1.224646799147353207E-16, -1.000000000000000000 ) ) ;
#241 = CALENDAR_DATE ( 2021, 30, 11 ) ;
#242 = ORIENTED_EDGE ( 'NONE', *, *, #3, .F. ) ;
#243 = CIRCLE ( 'NONE', #93, 1.168499999999995431 ) ;
#244 = EDGE_LOOP ( 'NONE', ( #102 ) ) ;
#245 = DATE_AND_TIME ( #260, #196 ) ;
#246 = DIRECTION ( 'NONE',  ( -3.491481338843133355E-15, 1.224646799147353207E-16, -1.000000000000000000 ) ) ;
#247 = DATE_AND_TIME ( #104, #253 ) ;
#248 = ORIENTED_EDGE ( 'NONE', *, *, #282, .F. ) ;
#249 = DATE_AND_TIME ( #241, #125 ) ;
#250 = EDGE_LOOP ( 'NONE', ( #21 ) ) ;
#251 = DIRECTION ( 'NONE',  ( -3.491481338843133355E-15, 1.224646799147353207E-16, -1.000000000000000000 ) ) ;
#252 = TOROIDAL_SURFACE ( 'NONE', #112, 3.015000000000000124, 2.000000000000000444 ) ;
#253 = LOCAL_TIME ( 7, 45, 11.00000000000000000, #175 ) ;
#254 = DIRECTION ( 'NONE',  ( 0.0000000000000000000, 1.000000000000000000, 0.0000000000000000000 ) ) ;
#255 = PLANE ( 'NONE',  #68 ) ;
#256 = CARTESIAN_POINT ( 'NONE',  ( 8.728703347107827472E-16, -3.061616997868381169E-17, 0.2499999999999998335 ) ) ;
#257 = CARTESIAN_POINT ( 'NONE',  ( 0.0000000000000000000, 0.0000000000000000000, 0.0000000000000000000 ) ) ;
#258 = MANIFOLD_SOLID_BREP ( 'Corps-Déplacer/Copier1[2]', #72 ) ;
#259 = VERTEX_POINT ( 'NONE', #14 ) ;
#260 = CALENDAR_DATE ( 2021, 30, 11 ) ;
#261 = EDGE_CURVE ( 'NONE', #238, #238, #243, .T. ) ;
#262 = COORDINATED_UNIVERSAL_TIME_OFFSET ( 1, 0, .AHEAD. ) ;
#263 = LOCAL_TIME ( 7, 45, 11.00000000000000000, #268 ) ;
#264 = ORIENTED_EDGE ( 'NONE', *, *, #273, .T. ) ;
#265 = CC_DESIGN_APPROVAL ( #219, ( #148 ) ) ;
#266 = APPROVAL_STATUS ( 'not_yet_approved' ) ;
#267 = DIRECTION ( 'NONE',  ( 0.0000000000000000000, 1.000000000000000000, 0.0000000000000000000 ) ) ;
#268 = COORDINATED_UNIVERSAL_TIME_OFFSET ( 1, 0, .AHEAD. ) ;
#269 = ORIENTED_EDGE ( 'NONE', *, *, #282, .T. ) ;
#270 = DIRECTION ( 'NONE',  ( 3.491481338843133355E-15, -1.224646799147353207E-16, 1.000000000000000000 ) ) ;
#271 = CIRCLE ( 'NONE', #276, 1.200000000000001732 ) ;
#272 = FACE_OUTER_BOUND ( 'NONE', #221, .T. ) ;
#273 = EDGE_CURVE ( 'NONE', #71, #71, #271, .T. ) ;
#274 = DIRECTION ( 'NONE',  ( -4.275831445896958607E-31, -1.000000000000000000, -1.224646799147353207E-16 ) ) ;
#275 = CARTESIAN_POINT ( 'NONE',  ( -2.189572967728030369E-31, 7.679988137402377411E-33, -6.271186225080965959E-17 ) ) ;
#276 = AXIS2_PLACEMENT_3D ( 'NONE', #13, #277, #254 ) ;
#277 = DIRECTION ( 'NONE',  ( -3.491481338843133355E-15, 1.224646799147353207E-16, -1.000000000000000000 ) ) ;
#278 = DIRECTION ( 'NONE',  ( -4.275831445896958607E-31, -1.000000000000000000, -1.224646799147353207E-16 ) ) ;
#279 = CARTESIAN_POINT ( 'NONE',  ( 3.491481338843133355E-14, 1.168499999999994099, 10.00000000000000000 ) ) ;
#280 = ORGANIZATION ( 'UNSPECIFIED', 'UNSPECIFIED', '' ) ;
#281 = FACE_OUTER_BOUND ( 'NONE', #244, .T. ) ;
#282 = EDGE_CURVE ( 'NONE', #17, #17, #77, .T. ) ;
#283 = PERSON_AND_ORGANIZATION_ROLE ( 'design_owner' ) ;
#284 = COORDINATED_UNIVERSAL_TIME_OFFSET ( 1, 0, .AHEAD. ) ;
#285 = CLOSED_SHELL ( 'NONE', ( #98, #86, #1, #63, #302, #47, #80, #124 ) ) ;
#286 = AXIS2_PLACEMENT_3D ( 'NONE', #165, #5, #205 ) ;
#287 = ORIENTED_EDGE ( 'NONE', *, *, #261, .F. ) ;
#288 = CIRCLE ( 'NONE', #15, 1.168499999999995431 ) ;
#289 = EDGE_LOOP ( 'NONE', ( #182 ) ) ;
#290 = AXIS2_PLACEMENT_3D ( 'NONE', #99, #137, #26 ) ;
#291 = PERSON_AND_ORGANIZATION ( #144, #280 ) ;
#292 = DIRECTION ( 'NONE',  ( -3.491481338843133355E-15, 1.224646799147353207E-16, -1.000000000000000000 ) ) ;
#293 = APPROVAL_STATUS ( 'not_yet_approved' ) ;
#294 = EDGE_LOOP ( 'NONE', ( #248 ) ) ;
#295 = DIRECTION ( 'NONE',  ( 0.0000000000000000000, 1.000000000000000000, 0.0000000000000000000 ) ) ;
#296 = AXIS2_PLACEMENT_3D ( 'NONE', #218, #235, #300 ) ;
#297 = FACE_OUTER_BOUND ( 'NONE', #200, .T. ) ;
#298 = PLANE ( 'NONE',  #185 ) ;
#299 = CARTESIAN_POINT ( 'NONE',  ( 8.004412654963518252E-14, -2.807570021326141032E-15, 22.92554900956652020 ) ) ;
#300 = DIRECTION ( 'NONE',  ( 4.275831445896958607E-31, 1.000000000000000000, 1.224646799147353207E-16 ) ) ;
#301 = DIRECTION ( 'NONE',  ( 0.0000000000000000000, -1.000000000000000000, 0.0000000000000000000 ) ) ;
#302 = ADVANCED_FACE ( 'NONE', ( #69, #41 ), #82, .T. ) ;
#303 = CALENDAR_DATE ( 2021, 30, 11 ) ;
ENDSEC;
END-ISO-10303-21;
