ISO-10303-21;
HEADER;
FILE_DESCRIPTION (( 'STEP AP203' ),
    '1' );
FILE_NAME ('957232.step',
    '2021-09-21T07:47:06',
    ( '' ),
    ( '' ),
    'SwSTEP 2.0',
    'SolidWorks 2019',
    '' );
FILE_SCHEMA (( 'CONFIG_CONTROL_DESIGN' ));
ENDSEC;

DATA;
#1 = AXIS2_PLACEMENT_3D ( 'NONE', #13, #84, #145 ) ;
#2 = AXIS2_PLACEMENT_3D ( 'NONE', #299, #321, #45 ) ;
#3 = COORDINATED_UNIVERSAL_TIME_OFFSET ( 1, 0, .AHEAD. ) ;
#4 = EDGE_LOOP ( 'NONE', ( #53, #201, #313, #126, #122 ) ) ;
#5 = ORIENTED_EDGE ( 'NONE', *, *, #204, .F. ) ;
#6 = ORIENTED_EDGE ( 'NONE', *, *, #146, .F. ) ;
#7 = DATE_AND_TIME ( #343, #31 ) ;
#8 = CC_DESIGN_APPROVAL ( #368, ( #124 ) ) ;
#9 = VERTEX_POINT ( 'NONE', #256 ) ;
#10 = EDGE_CURVE ( 'NONE', #217, #61, #288, .T. ) ;
#11 = DIRECTION ( 'NONE',  ( 7.703719777548943412E-31, 1.000000000000000000, 2.168404344971008868E-16 ) ) ;
#12 = AXIS2_PLACEMENT_3D ( 'NONE', #365, #87, #348 ) ;
#13 = CARTESIAN_POINT ( 'NONE',  ( 1.326762908760390423E-13, -4.653657836759941941E-15, 38.00000000000000000 ) ) ;
#14 = EDGE_CURVE ( 'NONE', #300, #101, #324, .T. ) ;
#15 = DIRECTION ( 'NONE',  ( 4.275831445896958607E-31, 1.000000000000000000, 1.224646799147353207E-16 ) ) ;
#16 = CIRCLE ( 'NONE', #222, 0.9999999999999993339 ) ;
#17 = CARTESIAN_POINT ( 'NONE',  ( 2.048111823049310799E-14, 0.0000000000000000000, 5.866025403784433934 ) ) ;
#18 = ADVANCED_BREP_SHAPE_REPRESENTATION ( '957232', ( #266, #133, #93 ), #332 ) ;
#19 = ADVANCED_FACE ( 'NONE', ( #234 ), #141, .T. ) ;
#20 = CARTESIAN_POINT ( 'NONE',  ( -1.499999999999977129, 1.836970198721026729E-16, 5.866025403784439263 ) ) ;
#21 = DIRECTION ( 'NONE',  ( -7.703719777548943412E-31, -1.000000000000000000, -2.168404344971008868E-16 ) ) ;
#22 = VECTOR ( 'NONE', #181, 1000.000000000000000 ) ;
#23 = CC_DESIGN_PERSON_AND_ORGANIZATION_ASSIGNMENT ( #257, #160, ( #124 ) ) ;
#24 = ORIENTED_EDGE ( 'NONE', *, *, #235, .F. ) ;
#25 =( NAMED_UNIT ( * ) PLANE_ANGLE_UNIT ( ) SI_UNIT ( $, .RADIAN. ) );
#26 = APPROVAL_ROLE ( '' ) ;
#27 = ORIENTED_EDGE ( 'NONE', *, *, #33, .T. ) ;
#28 = VECTOR ( 'NONE', #144, 1000.000000000000114 ) ;
#29 = VECTOR ( 'NONE', #250, 1000.000000000000114 ) ;
#30 = DATE_TIME_ROLE ( 'creation_date' ) ;
#31 = LOCAL_TIME ( 9, 47, 6.000000000000000000, #350 ) ;
#32 = ORIENTED_EDGE ( 'NONE', *, *, #353, .F. ) ;
#33 = EDGE_CURVE ( 'NONE', #163, #275, #229, .T. ) ;
#34 = CALENDAR_DATE ( 2021, 21, 9 ) ;
#35 = VERTEX_POINT ( 'NONE', #80 ) ;
#36 = CARTESIAN_POINT ( 'NONE',  ( 1.328232484919367446E-13, -1.200000000000005285, 38.00000000000000000 ) ) ;
#37 = DIRECTION ( 'NONE',  ( -1.000000000000000000, 0.0000000000000000000, 3.469446951953620500E-15 ) ) ;
#38 = ORIENTED_EDGE ( 'NONE', *, *, #395, .F. ) ;
#39 = DIRECTION ( 'NONE',  ( 1.000000000000000000, 0.0000000000000000000, -3.469446951953620500E-15 ) ) ;
#40 = CONICAL_SURFACE ( 'NONE', #63, 1.499999999999997335, 0.5235987755982995928 ) ;
#41 = APPROVAL_STATUS ( 'not_yet_approved' ) ;
#42 = CIRCLE ( 'NONE', #48, 0.9999999999999991118 ) ;
#43 = CC_DESIGN_PERSON_AND_ORGANIZATION_ASSIGNMENT ( #226, #340, ( #115 ) ) ;
#44 = ORIENTED_EDGE ( 'NONE', *, *, #140, .T. ) ;
#45 = DIRECTION ( 'NONE',  ( -1.000000000000000000, 0.0000000000000000000, 3.469446951953616555E-15 ) ) ;
#46 = LINE ( 'NONE', #388, #294 ) ;
#47 = DIRECTION ( 'NONE',  ( -3.491481338843133355E-15, 1.224646799147353207E-16, -1.000000000000000000 ) ) ;
#48 = AXIS2_PLACEMENT_3D ( 'NONE', #283, #69, #72 ) ;
#49 = ADVANCED_FACE ( 'NONE', ( #206 ), #265, .F. ) ;
#50 = DIRECTION ( 'NONE',  ( 1.000000000000000000, 0.0000000000000000000, -3.469446951953620500E-15 ) ) ;
#51 = ADVANCED_FACE ( 'NONE', ( #77 ), #40, .T. ) ;
#52 = PRODUCT ( '957232', '957232', '', ( #399 ) ) ;
#53 = ORIENTED_EDGE ( 'NONE', *, *, #311, .F. ) ;
#54 = DIRECTION ( 'NONE',  ( 3.491481338843133355E-15, -1.224646799147353207E-16, 1.000000000000000000 ) ) ;
#55 = ADVANCED_FACE ( 'NONE', ( #111 ), #360, .T. ) ;
#56 = CARTESIAN_POINT ( 'NONE',  ( 6.413747168845430903E-31, 1.499999999999998224, 1.836970198721027715E-16 ) ) ;
#57 = AXIS2_PLACEMENT_3D ( 'NONE', #17, #232, #78 ) ;
#58 = APPROVAL_STATUS ( 'not_yet_approved' ) ;
#59 = ORIENTED_EDGE ( 'NONE', *, *, #14, .T. ) ;
#60 = APPROVAL_DATE_TIME ( #7, #73 ) ;
#61 = VERTEX_POINT ( 'NONE', #168 ) ;
#62 = APPROVAL ( #41, 'UNSPECIFIED' ) ;
#63 = AXIS2_PLACEMENT_3D ( 'NONE', #139, #394, #50 ) ;
#64 = VECTOR ( 'NONE', #100, 1000.000000000000114 ) ;
#65 = PERSON_AND_ORGANIZATION ( #297, #83 ) ;
#66 = ORIENTED_EDGE ( 'NONE', *, *, #140, .F. ) ;
#67 = LINE ( 'NONE', #56, #271 ) ;
#68 = DIRECTION ( 'NONE',  ( -3.491481338843133355E-15, 1.224646799147353207E-16, -1.000000000000000000 ) ) ;
#69 = DIRECTION ( 'NONE',  ( -3.491481338843133355E-15, 0.0000000000000000000, -1.000000000000000000 ) ) ;
#70 = ORIENTED_EDGE ( 'NONE', *, *, #204, .T. ) ;
#71 = DIRECTION ( 'NONE',  ( -4.275831445896958607E-31, -1.000000000000000000, -1.224646799147353207E-16 ) ) ;
#72 = DIRECTION ( 'NONE',  ( -1.000000000000000000, 0.0000000000000000000, 3.469446951953617344E-15 ) ) ;
#73 = APPROVAL ( #281, 'UNSPECIFIED' ) ;
#74 = VERTEX_POINT ( 'NONE', #319 ) ;
#75 = DIRECTION ( 'NONE',  ( -3.491481338843133355E-15, 1.224646799147353207E-16, -1.000000000000000000 ) ) ;
#76 = CIRCLE ( 'NONE', #57, 1.499999999999997335 ) ;
#77 = FACE_OUTER_BOUND ( 'NONE', #342, .T. ) ;
#78 = DIRECTION ( 'NONE',  ( -1.000000000000000000, 0.0000000000000000000, 3.469446951953620500E-15 ) ) ;
#79 = FACE_OUTER_BOUND ( 'NONE', #116, .T. ) ;
#80 = CARTESIAN_POINT ( 'NONE',  ( 3.491481338843170432E-15, -1.000000000000000222, 1.000000000000010658 ) ) ;
#81 = ADVANCED_FACE ( 'NONE', ( #107 ), #193, .T. ) ;
#82 = CARTESIAN_POINT ( 'NONE',  ( -0.9999999999999991118, 0.0000000000000000000, 3.491481338843130200E-15 ) ) ;
#83 = ORGANIZATION ( 'UNSPECIFIED', 'UNSPECIFIED', '' ) ;
#84 = DIRECTION ( 'NONE',  ( -3.491481338843133355E-15, 1.224646799147353207E-16, -1.000000000000000000 ) ) ;
#85 = EDGE_CURVE ( 'NONE', #217, #74, #215, .T. ) ;
#86 = ORIENTED_EDGE ( 'NONE', *, *, #183, .T. ) ;
#87 = DIRECTION ( 'NONE',  ( -3.491481338843133355E-15, 0.0000000000000000000, -1.000000000000000000 ) ) ;
#88 = DIRECTION ( 'NONE',  ( -3.491481338843133355E-15, 0.0000000000000000000, -1.000000000000000000 ) ) ;
#89 = EDGE_LOOP ( 'NONE', ( #166, #86, #406, #347 ) ) ;
#90 = CYLINDRICAL_SURFACE ( 'NONE', #244, 1.499999999999998224 ) ;
#91 = DIRECTION ( 'NONE',  ( -3.491481338843133355E-15, 0.0000000000000000000, -1.000000000000000000 ) ) ;
#92 = AXIS2_PLACEMENT_3D ( 'NONE', #103, #197, #39 ) ;
#93 = AXIS2_PLACEMENT_3D ( 'NONE', #180, #236, #136 ) ;
#94 = VERTEX_POINT ( 'NONE', #354 ) ;
#95 = PERSON_AND_ORGANIZATION ( #297, #83 ) ;
#96 = EDGE_CURVE ( 'NONE', #381, #318, #230, .T. ) ;
#97 = ORIENTED_EDGE ( 'NONE', *, *, #295, .T. ) ;
#98 = PERSON_AND_ORGANIZATION ( #297, #83 ) ;
#99 = ORIENTED_EDGE ( 'NONE', *, *, #183, .F. ) ;
#100 = DIRECTION ( 'NONE',  ( 0.5000000000000036637, 0.0000000000000000000, 0.8660254037844365982 ) ) ;
#101 = VERTEX_POINT ( 'NONE', #386 ) ;
#102 = ADVANCED_FACE ( 'NONE', ( #79 ), #113, .T. ) ;
#103 = CARTESIAN_POINT ( 'NONE',  ( 2.048111823049310799E-14, 0.0000000000000000000, 5.866025403784433934 ) ) ;
#104 = ORIENTED_EDGE ( 'NONE', *, *, #169, .T. ) ;
#105 = DIRECTION ( 'NONE',  ( -3.491481338843133355E-15, 0.0000000000000000000, -1.000000000000000000 ) ) ;
#106 = PRODUCT_DEFINITION_SHAPE ( 'NONE', 'NONE',  #115 ) ;
#107 = FACE_OUTER_BOUND ( 'NONE', #407, .T. ) ;
#108 = VECTOR ( 'NONE', #143, 1000.000000000000000 ) ;
#109 = CIRCLE ( 'NONE', #153, 1.000000000000000000 ) ;
#110 = LINE ( 'NONE', #269, #64 ) ;
#111 = FACE_OUTER_BOUND ( 'NONE', #375, .T. ) ;
#112 = DIRECTION ( 'NONE',  ( 3.491481338843133355E-15, -1.224646799147353207E-16, 1.000000000000000000 ) ) ;
#113 = CONICAL_SURFACE ( 'NONE', #278, 1.200000000000000844, 0.7853981633974453924 ) ;
#114 = CC_DESIGN_APPROVAL ( #73, ( #237 ) ) ;
#115 = PRODUCT_DEFINITION ( 'UNKNOWN', '', #124, #248 ) ;
#116 = EDGE_LOOP ( 'NONE', ( #224, #339, #66, #334 ) ) ;
#117 = EDGE_LOOP ( 'NONE', ( #196, #364 ) ) ;
#118 = CYLINDRICAL_SURFACE ( 'NONE', #12, 0.9999999999999991118 ) ;
#119 = AXIS2_PLACEMENT_3D ( 'NONE', #326, #262, #148 ) ;
#120 = FACE_OUTER_BOUND ( 'NONE', #89, .T. ) ;
#121 = DATE_AND_TIME ( #34, #352 ) ;
#122 = ORIENTED_EDGE ( 'NONE', *, *, #96, .F. ) ;
#123 = AXIS2_PLACEMENT_3D ( 'NONE', #240, #88, #159 ) ;
#124 = PRODUCT_DEFINITION_FORMATION_WITH_SPECIFIED_SOURCE ( 'ANY', '', #52, .NOT_KNOWN. ) ;
#125 = COORDINATED_UNIVERSAL_TIME_OFFSET ( 1, 0, .AHEAD. ) ;
#126 = ORIENTED_EDGE ( 'NONE', *, *, #169, .F. ) ;
#127 = ORIENTED_EDGE ( 'NONE', *, *, #264, .F. ) ;
#128 = CALENDAR_DATE ( 2021, 21, 9 ) ;
#129 = EDGE_CURVE ( 'NONE', #239, #275, #289, .T. ) ;
#130 = DIRECTION ( 'NONE',  ( -3.491481338843133355E-15, 1.224646799147353207E-16, -1.000000000000000000 ) ) ;
#131 = CARTESIAN_POINT ( 'NONE',  ( 1.316288464743861212E-13, -4.616918432785521081E-15, 37.69999999999999574 ) ) ;
#132 = DATE_TIME_ROLE ( 'classification_date' ) ;
#133 = MANIFOLD_SOLID_BREP ( 'Corps-Déplacer/Copier1[2]', #303 ) ;
#134 = EDGE_LOOP ( 'NONE', ( #385, #279, #367 ) ) ;
#135 = DIRECTION ( 'NONE',  ( -1.000000000000000000, 0.0000000000000000000, 3.469446951953620500E-15 ) ) ;
#136 = DIRECTION ( 'NONE',  ( 1.000000000000000000, 0.0000000000000000000, 0.0000000000000000000 ) ) ;
#137 = CARTESIAN_POINT ( 'NONE',  ( 3.613946018757907158E-15, 0.9999999999999997780, 1.000000000000011102 ) ) ;
#138 = CARTESIAN_POINT ( 'NONE',  ( 7.623867937231156585E-14, -1.500000000000005329, 37.69999999999999574 ) ) ;
#139 = CARTESIAN_POINT ( 'NONE',  ( 2.048111823049310799E-14, 0.0000000000000000000, 5.866025403784433934 ) ) ;
#140 = EDGE_CURVE ( 'NONE', #61, #150, #346, .T. ) ;
#141 = CONICAL_SURFACE ( 'NONE', #1, 1.200000000000000844, 0.7853981633974453924 ) ;
#142 = AXIS2_PLACEMENT_3D ( 'NONE', #392, #383, #314 ) ;
#143 = DIRECTION ( 'NONE',  ( 2.555445736705828206E-15, 0.7071067811865435759, 0.7071067811865515695 ) ) ;
#144 = DIRECTION ( 'NONE',  ( -2.468850131082271655E-15, 0.7071067811865455743, -0.7071067811865493491 ) ) ;
#145 = DIRECTION ( 'NONE',  ( 0.0000000000000000000, 1.000000000000000000, 0.0000000000000000000 ) ) ;
#146 = EDGE_CURVE ( 'NONE', #300, #35, #177, .T. ) ;
#147 = VECTOR ( 'NONE', #292, 1000.000000000000000 ) ;
#148 = DIRECTION ( 'NONE',  ( -1.000000000000000000, 0.0000000000000000000, 3.469446951953617344E-15 ) ) ;
#149 = ORIENTED_EDGE ( 'NONE', *, *, #353, .T. ) ;
#150 = VERTEX_POINT ( 'NONE', #138 ) ;
#151 = CARTESIAN_POINT ( 'NONE',  ( 3.491481338843171221E-15, -1.224646799147366519E-16, 1.000000000000010880 ) ) ;
#152 = CC_DESIGN_DATE_AND_TIME_ASSIGNMENT ( #315, #30, ( #115 ) ) ;
#153 = AXIS2_PLACEMENT_3D ( 'NONE', #323, #47, #11 ) ;
#154 = UNCERTAINTY_MEASURE_WITH_UNIT (LENGTH_MEASURE( 1.000000000000000082E-05 ), #308, 'distance_accuracy_value', 'NONE');
#155 = CARTESIAN_POINT ( 'NONE',  ( 1.326762908760390423E-13, 1.199999999999996181, 38.00000000000000000 ) ) ;
#156 = DIRECTION ( 'NONE',  ( -2.382254525458723780E-15, -0.7071067811865453523, -0.7071067811865496822 ) ) ;
#157 = PLANE ( 'NONE',  #209 ) ;
#158 = EDGE_CURVE ( 'NONE', #242, #9, #370, .T. ) ;
#159 = DIRECTION ( 'NONE',  ( -1.000000000000000000, 0.0000000000000000000, 3.491481338843133355E-15 ) ) ;
#160 = PERSON_AND_ORGANIZATION_ROLE ( 'creator' ) ;
#161 = ORIENTED_EDGE ( 'NONE', *, *, #389, .F. ) ;
#162 = APPROVAL_PERSON_ORGANIZATION ( #199, #62, #26 ) ;
#163 = VERTEX_POINT ( 'NONE', #382 ) ;
#164 = SHAPE_DEFINITION_REPRESENTATION ( #106, #18 ) ;
#165 = DIRECTION ( 'NONE',  ( -3.491481338843133355E-15, 0.0000000000000000000, -1.000000000000000000 ) ) ;
#166 = ORIENTED_EDGE ( 'NONE', *, *, #33, .F. ) ;
#167 = DIRECTION ( 'NONE',  ( 4.275831445896958607E-31, 1.000000000000000000, 1.224646799147353207E-16 ) ) ;
#168 = CARTESIAN_POINT ( 'NONE',  ( 1.316288464743861212E-13, 1.499999999999996225, 37.69999999999999574 ) ) ;
#169 = EDGE_CURVE ( 'NONE', #318, #242, #76, .T. ) ;
#170 = ORIENTED_EDGE ( 'NONE', *, *, #129, .F. ) ;
#171 =( NAMED_UNIT ( * ) SI_UNIT ( $, .STERADIAN. ) SOLID_ANGLE_UNIT ( ) );
#172 = CONICAL_SURFACE ( 'NONE', #338, 1.000000000000000000, 0.7853981633974428389 ) ;
#173 = COORDINATED_UNIVERSAL_TIME_OFFSET ( 1, 0, .AHEAD. ) ;
#174 = FACE_OUTER_BOUND ( 'NONE', #4, .T. ) ;
#175 = DIRECTION ( 'NONE',  ( 0.0000000000000000000, 1.000000000000000000, 0.0000000000000000000 ) ) ;
#176 = EDGE_CURVE ( 'NONE', #35, #101, #109, .T. ) ;
#177 = LINE ( 'NONE', #260, #147 ) ;
#178 = CARTESIAN_POINT ( 'NONE',  ( 2.048111823049310799E-14, 0.0000000000000000000, 5.866025403784433934 ) ) ;
#179 = AXIS2_PLACEMENT_3D ( 'NONE', #327, #165, #223 ) ;
#180 = CARTESIAN_POINT ( 'NONE',  ( 0.0000000000000000000, 0.0000000000000000000, 0.0000000000000000000 ) ) ;
#181 = DIRECTION ( 'NONE',  ( -3.491481338843133355E-15, 0.0000000000000000000, -1.000000000000000000 ) ) ;
#182 = LOCAL_TIME ( 9, 47, 6.000000000000000000, #173 ) ;
#183 = EDGE_CURVE ( 'NONE', #163, #94, #390, .T. ) ;
#184 = DIRECTION ( 'NONE',  ( 3.491481338843133355E-15, -1.224646799147353207E-16, 1.000000000000000000 ) ) ;
#185 = ORIENTED_EDGE ( 'NONE', *, *, #298, .F. ) ;
#186 = DIRECTION ( 'NONE',  ( -3.491481338843133355E-15, 1.224646799147353207E-16, -1.000000000000000000 ) ) ;
#187 = FACE_OUTER_BOUND ( 'NONE', #310, .T. ) ;
#188 = LOCAL_TIME ( 9, 47, 6.000000000000000000, #125 ) ;
#189 = FACE_OUTER_BOUND ( 'NONE', #252, .T. ) ;
#190 = APPROVAL_DATE_TIME ( #377, #368 ) ;
#191 = ORIENTED_EDGE ( 'NONE', *, *, #235, .T. ) ;
#192 = SECURITY_CLASSIFICATION_LEVEL ( 'unclassified' ) ;
#193 = CONICAL_SURFACE ( 'NONE', #92, 1.499999999999997335, 0.5235987755982995928 ) ;
#194 = AXIS2_PLACEMENT_3D ( 'NONE', #333, #54, #21 ) ;
#195 = CALENDAR_DATE ( 2021, 21, 9 ) ;
#196 = ORIENTED_EDGE ( 'NONE', *, *, #129, .T. ) ;
#197 = DIRECTION ( 'NONE',  ( 3.491481338843133355E-15, 0.0000000000000000000, 1.000000000000000000 ) ) ;
#198 = ORIENTED_EDGE ( 'NONE', *, *, #158, .F. ) ;
#199 = PERSON_AND_ORGANIZATION ( #297, #83 ) ;
#200 = CARTESIAN_POINT ( 'NONE',  ( -0.9999999999999958922, 0.0000000000000000000, 1.000000000000002887 ) ) ;
#201 = ORIENTED_EDGE ( 'NONE', *, *, #210, .T. ) ;
#202 = CIRCLE ( 'NONE', #267, 1.500000000000000666 ) ;
#203 = DIRECTION ( 'NONE',  ( 0.0000000000000000000, 1.000000000000000000, 0.0000000000000000000 ) ) ;
#204 = EDGE_CURVE ( 'NONE', #163, #9, #110, .T. ) ;
#205 = DIRECTION ( 'NONE',  ( -3.491481338843133355E-15, 1.224646799147353207E-16, -1.000000000000000000 ) ) ;
#206 = FACE_OUTER_BOUND ( 'NONE', #117, .T. ) ;
#207 = AXIS2_PLACEMENT_3D ( 'NONE', #391, #316, #37 ) ;
#208 = DIRECTION ( 'NONE',  ( -3.491481338843133355E-15, 1.224646799147353207E-16, -1.000000000000000000 ) ) ;
#209 = AXIS2_PLACEMENT_3D ( 'NONE', #277, #306, #345 ) ;
#210 = EDGE_CURVE ( 'NONE', #150, #61, #202, .T. ) ;
#211 = LINE ( 'NONE', #82, #22 ) ;
#212 = LINE ( 'NONE', #36, #397 ) ;
#213 = ORIENTED_EDGE ( 'NONE', *, *, #228, .T. ) ;
#214 = ADVANCED_FACE ( 'NONE', ( #187 ), #157, .F. ) ;
#215 = CIRCLE ( 'NONE', #369, 1.200000000000000844 ) ;
#216 = DATE_AND_TIME ( #195, #380 ) ;
#217 = VERTEX_POINT ( 'NONE', #155 ) ;
#218 = APPROVAL_ROLE ( '' ) ;
#219 = EDGE_LOOP ( 'NONE', ( #282, #32 ) ) ;
#220 = PERSON_AND_ORGANIZATION_ROLE ( 'design_owner' ) ;
#221 = CC_DESIGN_DATE_AND_TIME_ASSIGNMENT ( #121, #132, ( #237 ) ) ;
#222 = AXIS2_PLACEMENT_3D ( 'NONE', #272, #91, #337 ) ;
#223 = DIRECTION ( 'NONE',  ( -1.000000000000000000, 0.0000000000000000000, 3.469446951953620500E-15 ) ) ;
#224 = ORIENTED_EDGE ( 'NONE', *, *, #85, .T. ) ;
#225 = CARTESIAN_POINT ( 'NONE',  ( 0.0000000000000000000, 0.0000000000000000000, 0.0000000000000000000 ) ) ;
#226 = PERSON_AND_ORGANIZATION ( #297, #83 ) ;
#227 = CARTESIAN_POINT ( 'NONE',  ( 1.326762908760390423E-13, 1.199999999999996181, 38.00000000000000000 ) ) ;
#228 = EDGE_CURVE ( 'NONE', #94, #318, #273, .T. ) ;
#229 = LINE ( 'NONE', #396, #357 ) ;
#230 = CIRCLE ( 'NONE', #331, 1.499999999999997335 ) ;
#231 = CONICAL_SURFACE ( 'NONE', #194, 1.000000000000000000, 0.7853981633974428389 ) ;
#232 = DIRECTION ( 'NONE',  ( -3.491481338843133355E-15, 0.0000000000000000000, -1.000000000000000000 ) ) ;
#233 = CARTESIAN_POINT ( 'NONE',  ( 1.326762908760390423E-13, -4.653657836759941941E-15, 38.00000000000000000 ) ) ;
#234 = FACE_OUTER_BOUND ( 'NONE', #270, .T. ) ;
#235 = EDGE_CURVE ( 'NONE', #9, #381, #261, .T. ) ;
#236 = DIRECTION ( 'NONE',  ( 0.0000000000000000000, 0.0000000000000000000, 1.000000000000000000 ) ) ;
#237 = SECURITY_CLASSIFICATION ( '', '', #192 ) ;
#238 = CC_DESIGN_SECURITY_CLASSIFICATION ( #237, ( #124 ) ) ;
#239 = VERTEX_POINT ( 'NONE', #200 ) ;
#240 = CARTESIAN_POINT ( 'NONE',  ( 0.0000000000000000000, 0.0000000000000000000, 0.0000000000000000000 ) ) ;
#241 = ADVANCED_FACE ( 'NONE', ( #174 ), #291, .T. ) ;
#242 = VERTEX_POINT ( 'NONE', #268 ) ;
#243 = DIRECTION ( 'NONE',  ( 7.703719777548943412E-31, 1.000000000000000000, 2.168404344971008868E-16 ) ) ;
#244 = AXIS2_PLACEMENT_3D ( 'NONE', #225, #186, #167 ) ;
#245 = DIRECTION ( 'NONE',  ( 3.491481338843133355E-15, -1.224646799147353207E-16, 1.000000000000000000 ) ) ;
#246 = ORIENTED_EDGE ( 'NONE', *, *, #85, .F. ) ;
#247 = PRODUCT_RELATED_PRODUCT_CATEGORY ( 'detail', '', ( #52 ) ) ;
#248 = DESIGN_CONTEXT ( 'detailed design', #373, 'design' ) ;
#249 = FACE_OUTER_BOUND ( 'NONE', #219, .T. ) ;
#250 = DIRECTION ( 'NONE',  ( -0.4999999999999976130, 6.123233995736774664E-17, 0.8660254037844399289 ) ) ;
#251 = PERSON_AND_ORGANIZATION ( #297, #83 ) ;
#252 = EDGE_LOOP ( 'NONE', ( #44, #307, #24, #198, #161 ) ) ;
#253 = APPROVAL_DATE_TIME ( #216, #62 ) ;
#254 = CC_DESIGN_PERSON_AND_ORGANIZATION_ASSIGNMENT ( #251, #374, ( #237 ) ) ;
#255 = DIRECTION ( 'NONE',  ( 0.0000000000000000000, 1.000000000000000000, 0.0000000000000000000 ) ) ;
#256 = CARTESIAN_POINT ( 'NONE',  ( 1.500000000000017764, 0.0000000000000000000, 5.866025403784428605 ) ) ;
#257 = PERSON_AND_ORGANIZATION ( #297, #83 ) ;
#258 = CIRCLE ( 'NONE', #328, 1.000000000000000000 ) ;
#259 = EDGE_LOOP ( 'NONE', ( #6, #59, #149 ) ) ;
#260 = CARTESIAN_POINT ( 'NONE',  ( 3.491481338843170432E-15, -1.000000000000000222, 1.000000000000010658 ) ) ;
#261 = CIRCLE ( 'NONE', #179, 1.499999999999997335 ) ;
#262 = DIRECTION ( 'NONE',  ( -3.491481338843133355E-15, 0.0000000000000000000, -1.000000000000000000 ) ) ;
#263 = CARTESIAN_POINT ( 'NONE',  ( 0.0000000000000000000, 0.0000000000000000000, 0.0000000000000000000 ) ) ;
#264 = EDGE_CURVE ( 'NONE', #94, #239, #211, .T. ) ;
#265 = PLANE ( 'NONE',  #401 ) ;
#266 = MANIFOLD_SOLID_BREP ( 'Corps-Déplacer/Copier1[1]', #293 ) ;
#267 = AXIS2_PLACEMENT_3D ( 'NONE', #309, #366, #255 ) ;
#268 = CARTESIAN_POINT ( 'NONE',  ( 7.605498235243966508E-14, 1.499999999999997335, 5.866025403784433934 ) ) ;
#269 = CARTESIAN_POINT ( 'NONE',  ( 1.500000000000017764, 0.0000000000000000000, 5.866025403784428605 ) ) ;
#270 = EDGE_LOOP ( 'NONE', ( #38, #97, #362, #274 ) ) ;
#271 = VECTOR ( 'NONE', #130, 1000.000000000000000 ) ;
#272 = CARTESIAN_POINT ( 'NONE',  ( 3.491481338843130989E-15, 0.0000000000000000000, 0.9999999999999993339 ) ) ;
#273 = LINE ( 'NONE', #405, #29 ) ;
#274 = ORIENTED_EDGE ( 'NONE', *, *, #210, .F. ) ;
#275 = VERTEX_POINT ( 'NONE', #296 ) ;
#276 = PERSON_AND_ORGANIZATION ( #297, #83 ) ;
#277 = CARTESIAN_POINT ( 'NONE',  ( 1.326762908760390423E-13, 8.998558695971082698E-33, 38.00000000000000000 ) ) ;
#278 = AXIS2_PLACEMENT_3D ( 'NONE', #351, #75, #203 ) ;
#279 = ORIENTED_EDGE ( 'NONE', *, *, #146, .T. ) ;
#280 = ADVANCED_FACE ( 'NONE', ( #304 ), #172, .T. ) ;
#281 = APPROVAL_STATUS ( 'not_yet_approved' ) ;
#282 = ORIENTED_EDGE ( 'NONE', *, *, #176, .F. ) ;
#283 = CARTESIAN_POINT ( 'NONE',  ( 1.745740669421566678E-14, 0.0000000000000000000, 5.000000000000000000 ) ) ;
#284 = PERSON_AND_ORGANIZATION_ROLE ( 'design_supplier' ) ;
#285 = PLANE ( 'NONE',  #305 ) ;
#286 = CALENDAR_DATE ( 2021, 21, 9 ) ;
#287 = EDGE_CURVE ( 'NONE', #275, #239, #16, .T. ) ;
#288 = LINE ( 'NONE', #227, #28 ) ;
#289 = CIRCLE ( 'NONE', #2, 0.9999999999999993339 ) ;
#290 = DIRECTION ( 'NONE',  ( 0.0000000000000000000, 1.000000000000000000, 0.0000000000000000000 ) ) ;
#291 = CYLINDRICAL_SURFACE ( 'NONE', #359, 1.499999999999998224 ) ;
#292 = DIRECTION ( 'NONE',  ( 2.468850131082278754E-15, -0.7071067811865437980, 0.7071067811865513475 ) ) ;
#293 = CLOSED_SHELL ( 'NONE', ( #55, #81, #102, #400, #241, #19, #214, #51, #361, #49 ) ) ;
#294 = VECTOR ( 'NONE', #208, 1000.000000000000000 ) ;
#295 = EDGE_CURVE ( 'NONE', #74, #217, #312, .T. ) ;
#296 = CARTESIAN_POINT ( 'NONE',  ( 1.000000000000002887, 1.224646799147352468E-16, 0.9999999999999958922 ) ) ;
#297 = PERSON ( 'UNSPECIFIED', 'UNSPECIFIED', 'UNSPECIFIED', ('UNSPECIFIED'), ('UNSPECIFIED'), ('UNSPECIFIED') ) ;
#298 = EDGE_CURVE ( 'NONE', #94, #163, #42, .T. ) ;
#299 = CARTESIAN_POINT ( 'NONE',  ( 3.491481338843130989E-15, 0.0000000000000000000, 0.9999999999999993339 ) ) ;
#300 = VERTEX_POINT ( 'NONE', #322 ) ;
#301 = DIRECTION ( 'NONE',  ( -3.491481338843133355E-15, 1.224646799147353207E-16, -1.000000000000000000 ) ) ;
#302 = APPLICATION_PROTOCOL_DEFINITION ( 'international standard', 'config_control_design', 1994, #404 ) ;
#303 = CLOSED_SHELL ( 'NONE', ( #280, #325, #341 ) ) ;
#304 = FACE_OUTER_BOUND ( 'NONE', #259, .T. ) ;
#305 = AXIS2_PLACEMENT_3D ( 'NONE', #358, #184, #71 ) ;
#306 = DIRECTION ( 'NONE',  ( -3.491481338843133355E-15, 1.224646799147353207E-16, -1.000000000000000000 ) ) ;
#307 = ORIENTED_EDGE ( 'NONE', *, *, #311, .T. ) ;
#308 =( LENGTH_UNIT ( ) NAMED_UNIT ( * ) SI_UNIT ( .MILLI., .METRE. ) );
#309 = CARTESIAN_POINT ( 'NONE',  ( 1.316288464743861212E-13, -4.616918432785521081E-15, 37.69999999999999574 ) ) ;
#310 = EDGE_LOOP ( 'NONE', ( #246, #372 ) ) ;
#311 = EDGE_CURVE ( 'NONE', #150, #381, #46, .T. ) ;
#312 = CIRCLE ( 'NONE', #142, 1.200000000000000844 ) ;
#313 = ORIENTED_EDGE ( 'NONE', *, *, #389, .T. ) ;
#314 = DIRECTION ( 'NONE',  ( 0.0000000000000000000, 1.000000000000000000, 0.0000000000000000000 ) ) ;
#315 = DATE_AND_TIME ( #286, #182 ) ;
#316 = DIRECTION ( 'NONE',  ( -3.491481338843133355E-15, 0.0000000000000000000, -1.000000000000000000 ) ) ;
#317 = CC_DESIGN_PERSON_AND_ORGANIZATION_ASSIGNMENT ( #65, #220, ( #52 ) ) ;
#318 = VERTEX_POINT ( 'NONE', #20 ) ;
#319 = CARTESIAN_POINT ( 'NONE',  ( 1.323178959930974653E-13, -1.200000000000005285, 38.00000000000000000 ) ) ;
#320 = AXIS2_PLACEMENT_3D ( 'NONE', #131, #205, #175 ) ;
#321 = DIRECTION ( 'NONE',  ( -3.491481338843133355E-15, 0.0000000000000000000, -1.000000000000000000 ) ) ;
#322 = CARTESIAN_POINT ( 'NONE',  ( 0.0000000000000000000, 0.0000000000000000000, 0.0000000000000000000 ) ) ;
#323 = CARTESIAN_POINT ( 'NONE',  ( 3.491481338843171221E-15, -1.224646799147366519E-16, 1.000000000000010880 ) ) ;
#324 = LINE ( 'NONE', #137, #108 ) ;
#325 = ADVANCED_FACE ( 'NONE', ( #335 ), #231, .T. ) ;
#326 = CARTESIAN_POINT ( 'NONE',  ( 1.745740669421566678E-14, 0.0000000000000000000, 5.000000000000000000 ) ) ;
#327 = CARTESIAN_POINT ( 'NONE',  ( 2.048111823049310799E-14, 0.0000000000000000000, 5.866025403784433934 ) ) ;
#328 = AXIS2_PLACEMENT_3D ( 'NONE', #151, #301, #243 ) ;
#329 = DIRECTION ( 'NONE',  ( -3.491481338843133355E-15, 0.0000000000000000000, -1.000000000000000000 ) ) ;
#330 = DIRECTION ( 'NONE',  ( -4.275831445896958607E-31, -1.000000000000000000, -1.224646799147353207E-16 ) ) ;
#331 = AXIS2_PLACEMENT_3D ( 'NONE', #178, #105, #135 ) ;
#332 =( GEOMETRIC_REPRESENTATION_CONTEXT ( 3 ) GLOBAL_UNCERTAINTY_ASSIGNED_CONTEXT ( ( #154 ) ) GLOBAL_UNIT_ASSIGNED_CONTEXT ( ( #308, #25, #171 ) ) REPRESENTATION_CONTEXT ( 'NONE', 'WORKASPACE' ) );
#333 = CARTESIAN_POINT ( 'NONE',  ( 3.491481338843171221E-15, -1.224646799147366519E-16, 1.000000000000010880 ) ) ;
#334 = ORIENTED_EDGE ( 'NONE', *, *, #10, .F. ) ;
#335 = FACE_OUTER_BOUND ( 'NONE', #134, .T. ) ;
#336 = CARTESIAN_POINT ( 'NONE',  ( 7.623867937231166682E-14, -1.499999999999997335, 5.866025403784433934 ) ) ;
#337 = DIRECTION ( 'NONE',  ( -1.000000000000000000, 0.0000000000000000000, 3.469446951953616555E-15 ) ) ;
#338 = AXIS2_PLACEMENT_3D ( 'NONE', #376, #245, #363 ) ;
#339 = ORIENTED_EDGE ( 'NONE', *, *, #395, .T. ) ;
#340 = PERSON_AND_ORGANIZATION_ROLE ( 'creator' ) ;
#341 = ADVANCED_FACE ( 'NONE', ( #249 ), #285, .T. ) ;
#342 = EDGE_LOOP ( 'NONE', ( #403, #99, #70, #191, #349 ) ) ;
#343 = CALENDAR_DATE ( 2021, 21, 9 ) ;
#344 = ORIENTED_EDGE ( 'NONE', *, *, #298, .T. ) ;
#345 = DIRECTION ( 'NONE',  ( 4.275831445896958607E-31, 1.000000000000000000, 1.224646799147353207E-16 ) ) ;
#346 = CIRCLE ( 'NONE', #320, 1.500000000000000666 ) ;
#347 = ORIENTED_EDGE ( 'NONE', *, *, #287, .F. ) ;
#348 = DIRECTION ( 'NONE',  ( -1.000000000000000000, 0.0000000000000000000, 3.491481338843133355E-15 ) ) ;
#349 = ORIENTED_EDGE ( 'NONE', *, *, #96, .T. ) ;
#350 = COORDINATED_UNIVERSAL_TIME_OFFSET ( 1, 0, .AHEAD. ) ;
#351 = CARTESIAN_POINT ( 'NONE',  ( 1.326762908760390423E-13, -4.653657836759941941E-15, 38.00000000000000000 ) ) ;
#352 = LOCAL_TIME ( 9, 47, 6.000000000000000000, #384 ) ;
#353 = EDGE_CURVE ( 'NONE', #101, #35, #258, .T. ) ;
#354 = CARTESIAN_POINT ( 'NONE',  ( -0.9999999999999815703, 1.530808498934189598E-16, 5.000000000000003553 ) ) ;
#355 = CC_DESIGN_APPROVAL ( #62, ( #115 ) ) ;
#356 = CC_DESIGN_PERSON_AND_ORGANIZATION_ASSIGNMENT ( #276, #284, ( #124 ) ) ;
#357 = VECTOR ( 'NONE', #329, 1000.000000000000000 ) ;
#358 = CARTESIAN_POINT ( 'NONE',  ( 3.491481338843171221E-15, -2.168404344971032534E-16, 1.000000000000010880 ) ) ;
#359 = AXIS2_PLACEMENT_3D ( 'NONE', #263, #393, #15 ) ;
#360 = CYLINDRICAL_SURFACE ( 'NONE', #123, 0.9999999999999991118 ) ;
#361 = ADVANCED_FACE ( 'NONE', ( #120 ), #118, .T. ) ;
#362 = ORIENTED_EDGE ( 'NONE', *, *, #10, .T. ) ;
#363 = DIRECTION ( 'NONE',  ( -7.703719777548943412E-31, -1.000000000000000000, -2.168404344971008868E-16 ) ) ;
#364 = ORIENTED_EDGE ( 'NONE', *, *, #287, .T. ) ;
#365 = CARTESIAN_POINT ( 'NONE',  ( 0.0000000000000000000, 0.0000000000000000000, 0.0000000000000000000 ) ) ;
#366 = DIRECTION ( 'NONE',  ( -3.491481338843133355E-15, 1.224646799147353207E-16, -1.000000000000000000 ) ) ;
#367 = ORIENTED_EDGE ( 'NONE', *, *, #176, .T. ) ;
#368 = APPROVAL ( #58, 'UNSPECIFIED' ) ;
#369 = AXIS2_PLACEMENT_3D ( 'NONE', #233, #68, #290 ) ;
#370 = CIRCLE ( 'NONE', #207, 1.499999999999997335 ) ;
#371 = APPLICATION_PROTOCOL_DEFINITION ( 'international standard', 'config_control_design', 1994, #373 ) ;
#372 = ORIENTED_EDGE ( 'NONE', *, *, #295, .F. ) ;
#373 = APPLICATION_CONTEXT ( 'configuration controlled 3d designs of mechanical parts and assemblies' ) ;
#374 = PERSON_AND_ORGANIZATION_ROLE ( 'classification_officer' ) ;
#375 = EDGE_LOOP ( 'NONE', ( #344, #27, #170, #127 ) ) ;
#376 = CARTESIAN_POINT ( 'NONE',  ( 3.491481338843171221E-15, -1.224646799147366519E-16, 1.000000000000010880 ) ) ;
#377 = DATE_AND_TIME ( #128, #188 ) ;
#378 = ORIENTED_EDGE ( 'NONE', *, *, #158, .T. ) ;
#379 = APPROVAL_ROLE ( '' ) ;
#380 = LOCAL_TIME ( 9, 47, 6.000000000000000000, #3 ) ;
#381 = VERTEX_POINT ( 'NONE', #336 ) ;
#382 = CARTESIAN_POINT ( 'NONE',  ( 1.000000000000016653, 0.0000000000000000000, 4.999999999999996447 ) ) ;
#383 = DIRECTION ( 'NONE',  ( -3.491481338843133355E-15, 1.224646799147353207E-16, -1.000000000000000000 ) ) ;
#384 = COORDINATED_UNIVERSAL_TIME_OFFSET ( 1, 0, .AHEAD. ) ;
#385 = ORIENTED_EDGE ( 'NONE', *, *, #14, .F. ) ;
#386 = CARTESIAN_POINT ( 'NONE',  ( 3.613946018757907158E-15, 0.9999999999999997780, 1.000000000000011102 ) ) ;
#387 = CARTESIAN_POINT ( 'NONE',  ( 3.491481338843171221E-15, -2.168404344971032534E-16, 1.000000000000010880 ) ) ;
#388 = CARTESIAN_POINT ( 'NONE',  ( 1.836970198721021306E-16, -1.499999999999998224, -1.836970198721033878E-16 ) ) ;
#389 = EDGE_CURVE ( 'NONE', #61, #242, #67, .T. ) ;
#390 = CIRCLE ( 'NONE', #119, 0.9999999999999991118 ) ;
#391 = CARTESIAN_POINT ( 'NONE',  ( 2.048111823049310799E-14, 0.0000000000000000000, 5.866025403784433934 ) ) ;
#392 = CARTESIAN_POINT ( 'NONE',  ( 1.326762908760390423E-13, -4.653657836759941941E-15, 38.00000000000000000 ) ) ;
#393 = DIRECTION ( 'NONE',  ( -3.491481338843133355E-15, 1.224646799147353207E-16, -1.000000000000000000 ) ) ;
#394 = DIRECTION ( 'NONE',  ( 3.491481338843133355E-15, 0.0000000000000000000, 1.000000000000000000 ) ) ;
#395 = EDGE_CURVE ( 'NONE', #74, #150, #212, .T. ) ;
#396 = CARTESIAN_POINT ( 'NONE',  ( 0.9999999999999991118, 1.224646799147352221E-16, -3.491481338843130200E-15 ) ) ;
#397 = VECTOR ( 'NONE', #156, 1000.000000000000000 ) ;
#398 = APPROVAL_PERSON_ORGANIZATION ( #98, #368, #218 ) ;
#399 = MECHANICAL_CONTEXT ( 'NONE', #404, 'mechanical' ) ;
#400 = ADVANCED_FACE ( 'NONE', ( #189 ), #90, .T. ) ;
#401 = AXIS2_PLACEMENT_3D ( 'NONE', #387, #112, #330 ) ;
#402 = APPROVAL_PERSON_ORGANIZATION ( #95, #73, #379 ) ;
#403 = ORIENTED_EDGE ( 'NONE', *, *, #228, .F. ) ;
#404 = APPLICATION_CONTEXT ( 'configuration controlled 3d designs of mechanical parts and assemblies' ) ;
#405 = CARTESIAN_POINT ( 'NONE',  ( -1.499999999999977129, 1.836970198721026729E-16, 5.866025403784439263 ) ) ;
#406 = ORIENTED_EDGE ( 'NONE', *, *, #264, .T. ) ;
#407 = EDGE_LOOP ( 'NONE', ( #185, #213, #104, #378, #5 ) ) ;
ENDSEC;
END-ISO-10303-21;
