ISO-10303-21;
HEADER;
FILE_DESCRIPTION (( 'STEP AP203' ),
    '1' );
FILE_NAME ('957231.step',
    '2021-09-21T07:47:05',
    ( '' ),
    ( '' ),
    'SwSTEP 2.0',
    'SolidWorks 2019',
    '' );
FILE_SCHEMA (( 'CONFIG_CONTROL_DESIGN' ));
ENDSEC;

DATA;
#1 = DIRECTION ( 'NONE',  ( -3.491481338843133355E-15, 1.224646799147353207E-16, -1.000000000000000000 ) ) ;
#2 = CARTESIAN_POINT ( 'NONE',  ( 1.328232484919367446E-13, -1.200000000000005285, 38.00000000000000000 ) ) ;
#3 = DIRECTION ( 'NONE',  ( 2.468850131082278754E-15, -0.7071067811865436870, 0.7071067811865513475 ) ) ;
#4 = CC_DESIGN_PERSON_AND_ORGANIZATION_ASSIGNMENT ( #39, #169, ( #290 ) ) ;
#5 = FACE_OUTER_BOUND ( 'NONE', #262, .T. ) ;
#6 = CARTESIAN_POINT ( 'NONE',  ( 0.0000000000000000000, 0.0000000000000000000, 0.0000000000000000000 ) ) ;
#7 = AXIS2_PLACEMENT_3D ( 'NONE', #55, #25, #127 ) ;
#8 = APPROVAL ( #161, 'UNSPECIFIED' ) ;
#9 = ORIENTED_EDGE ( 'NONE', *, *, #132, .T. ) ;
#10 = COORDINATED_UNIVERSAL_TIME_OFFSET ( 1, 0, .AHEAD. ) ;
#11 = AXIS2_PLACEMENT_3D ( 'NONE', #400, #121, #370 ) ;
#12 = LINE ( 'NONE', #110, #15 ) ;
#13 = EDGE_CURVE ( 'NONE', #70, #172, #319, .T. ) ;
#14 = ORIENTED_EDGE ( 'NONE', *, *, #74, .T. ) ;
#15 = VECTOR ( 'NONE', #336, 1000.000000000000000 ) ;
#16 = LINE ( 'NONE', #275, #190 ) ;
#17 = CC_DESIGN_PERSON_AND_ORGANIZATION_ASSIGNMENT ( #101, #202, ( #290 ) ) ;
#18 = CARTESIAN_POINT ( 'NONE',  ( 7.681091023650903485E-14, 1.499999999999997558, 6.299038105676650900 ) ) ;
#19 = ADVANCED_FACE ( 'NONE', ( #114 ), #80, .F. ) ;
#20 = VECTOR ( 'NONE', #111, 1000.000000000000000 ) ;
#21 = AXIS2_PLACEMENT_3D ( 'NONE', #310, #189, #315 ) ;
#22 = CC_DESIGN_APPROVAL ( #214, ( #266 ) ) ;
#23 = UNCERTAINTY_MEASURE_WITH_UNIT (LENGTH_MEASURE( 1.000000000000000082E-05 ), #89, 'distance_accuracy_value', 'NONE');
#24 = CARTESIAN_POINT ( 'NONE',  ( 1.745740669421566993E-14, 0.0000000000000000000, 5.000000000000000888 ) ) ;
#25 = DIRECTION ( 'NONE',  ( -3.491481338843133355E-15, 1.224646799147353207E-16, -1.000000000000000000 ) ) ;
#26 = DIRECTION ( 'NONE',  ( -3.491481338843133355E-15, 0.0000000000000000000, -1.000000000000000000 ) ) ;
#27 = CARTESIAN_POINT ( 'NONE',  ( 2.618611004132379599E-15, -9.184850993605253208E-17, 0.7500000000000084377 ) ) ;
#28 = DIRECTION ( 'NONE',  ( -5.135813185032627774E-31, -1.000000000000000000, -1.445602896647338917E-16 ) ) ;
#29 = LINE ( 'NONE', #160, #377 ) ;
#30 = CALENDAR_DATE ( 2021, 21, 9 ) ;
#31 = ADVANCED_FACE ( 'NONE', ( #238 ), #53, .F. ) ;
#32 = CIRCLE ( 'NONE', #85, 1.500000000000000666 ) ;
#33 = ORIENTED_EDGE ( 'NONE', *, *, #287, .T. ) ;
#34 = ORIENTED_EDGE ( 'NONE', *, *, #337, .T. ) ;
#35 = PERSON_AND_ORGANIZATION ( #237, #258 ) ;
#36 = ADVANCED_FACE ( 'NONE', ( #339 ), #117, .T. ) ;
#37 = CIRCLE ( 'NONE', #128, 1.499999999999997558 ) ;
#38 = EDGE_LOOP ( 'NONE', ( #288, #381 ) ) ;
#39 = PERSON_AND_ORGANIZATION ( #237, #258 ) ;
#40 = ORIENTED_EDGE ( 'NONE', *, *, #343, .T. ) ;
#41 = DIRECTION ( 'NONE',  ( -3.491481338843133355E-15, 0.0000000000000000000, -1.000000000000000000 ) ) ;
#42 = VERTEX_POINT ( 'NONE', #185 ) ;
#43 = ORIENTED_EDGE ( 'NONE', *, *, #203, .F. ) ;
#44 = DIRECTION ( 'NONE',  ( 4.275831445896958607E-31, 1.000000000000000000, 1.224646799147353207E-16 ) ) ;
#45 = DIRECTION ( 'NONE',  ( -4.275831445896958607E-31, -1.000000000000000000, -1.224646799147353207E-16 ) ) ;
#46 = ADVANCED_FACE ( 'NONE', ( #76 ), #366, .T. ) ;
#47 = VERTEX_POINT ( 'NONE', #81 ) ;
#48 = CARTESIAN_POINT ( 'NONE',  ( 1.745740669421566993E-14, 0.0000000000000000000, 5.000000000000000888 ) ) ;
#49 = APPROVAL_DATE_TIME ( #143, #311 ) ;
#50 = DIRECTION ( 'NONE',  ( 3.491481338843133355E-15, -1.224646799147353207E-16, 1.000000000000000000 ) ) ;
#51 = PERSON_AND_ORGANIZATION_ROLE ( 'classification_officer' ) ;
#52 = CONICAL_SURFACE ( 'NONE', #380, 0.7500000000000001110, 0.7853981633974427279 ) ;
#53 = PLANE ( 'NONE',  #225 ) ;
#54 = CALENDAR_DATE ( 2021, 21, 9 ) ;
#55 = CARTESIAN_POINT ( 'NONE',  ( 1.326762908760390423E-13, -4.653657836759941941E-15, 38.00000000000000000 ) ) ;
#56 = DIRECTION ( 'NONE',  ( 0.0000000000000000000, 1.000000000000000000, 0.0000000000000000000 ) ) ;
#57 = PERSON_AND_ORGANIZATION ( #237, #258 ) ;
#58 = DIRECTION ( 'NONE',  ( -3.491481338843133355E-15, 1.224646799147353207E-16, -1.000000000000000000 ) ) ;
#59 = CARTESIAN_POINT ( 'NONE',  ( 2.618611004132379599E-15, -9.184850993605253208E-17, 0.7500000000000084377 ) ) ;
#60 = VECTOR ( 'NONE', #182, 1000.000000000000000 ) ;
#61 = CARTESIAN_POINT ( 'NONE',  ( 2.199297399863182860E-14, 0.0000000000000000000, 6.299038105676650900 ) ) ;
#62 = CARTESIAN_POINT ( 'NONE',  ( 6.413747168845430903E-31, 1.499999999999998224, 1.836970198721027715E-16 ) ) ;
#63 = APPLICATION_PROTOCOL_DEFINITION ( 'international standard', 'config_control_design', 1994, #207 ) ;
#64 = CARTESIAN_POINT ( 'NONE',  ( 2.199297399863182860E-14, 0.0000000000000000000, 6.299038105676650900 ) ) ;
#65 = DIRECTION ( 'NONE',  ( -1.000000000000000000, 0.0000000000000000000, 3.469446951953616161E-15 ) ) ;
#66 = EDGE_LOOP ( 'NONE', ( #272, #173, #264, #285 ) ) ;
#67 = EDGE_CURVE ( 'NONE', #259, #385, #204, .T. ) ;
#68 = ORIENTED_EDGE ( 'NONE', *, *, #74, .F. ) ;
#69 = CIRCLE ( 'NONE', #155, 0.7499999999999995559 ) ;
#70 = VERTEX_POINT ( 'NONE', #108 ) ;
#71 = AXIS2_PLACEMENT_3D ( 'NONE', #6, #135, #382 ) ;
#72 = ORIENTED_EDGE ( 'NONE', *, *, #203, .T. ) ;
#73 = DIRECTION ( 'NONE',  ( -3.491481338843133355E-15, 0.0000000000000000000, -1.000000000000000000 ) ) ;
#74 = EDGE_CURVE ( 'NONE', #137, #163, #183, .T. ) ;
#75 = DIRECTION ( 'NONE',  ( -3.491481338843133355E-15, 1.224646799147353207E-16, -1.000000000000000000 ) ) ;
#76 = FACE_OUTER_BOUND ( 'NONE', #38, .T. ) ;
#77 = CONICAL_SURFACE ( 'NONE', #205, 1.499999999999997558, 0.5235987755983000369 ) ;
#78 = CALENDAR_DATE ( 2021, 21, 9 ) ;
#79 = CC_DESIGN_APPROVAL ( #8, ( #123 ) ) ;
#80 = PLANE ( 'NONE',  #216 ) ;
#81 = CARTESIAN_POINT ( 'NONE',  ( 0.7500000000000022204, 9.184850993605145972E-17, 0.7499999999999970024 ) ) ;
#82 = CARTESIAN_POINT ( 'NONE',  ( 7.699460725638104922E-14, -1.499999999999997558, 6.299038105676650900 ) ) ;
#83 = EDGE_LOOP ( 'NONE', ( #243, #171, #102, #72, #103 ) ) ;
#84 = CIRCLE ( 'NONE', #162, 0.7500000000000000000 ) ;
#85 = AXIS2_PLACEMENT_3D ( 'NONE', #129, #58, #317 ) ;
#86 = CC_DESIGN_PERSON_AND_ORGANIZATION_ASSIGNMENT ( #263, #386, ( #123 ) ) ;
#87 = SHAPE_DEFINITION_REPRESENTATION ( #324, #405 ) ;
#88 = DIRECTION ( 'NONE',  ( -2.382254525458723780E-15, -0.7071067811865453523, -0.7071067811865496822 ) ) ;
#89 =( LENGTH_UNIT ( ) NAMED_UNIT ( * ) SI_UNIT ( .MILLI., .METRE. ) );
#90 = CLOSED_SHELL ( 'NONE', ( #144, #301, #46 ) ) ;
#91 = LOCAL_TIME ( 9, 47, 5.000000000000000000, #316 ) ;
#92 = CARTESIAN_POINT ( 'NONE',  ( 1.323178959930974653E-13, -1.200000000000005285, 38.00000000000000000 ) ) ;
#93 = CC_DESIGN_DATE_AND_TIME_ASSIGNMENT ( #334, #181, ( #123 ) ) ;
#94 = DIRECTION ( 'NONE',  ( -3.491481338843133355E-15, 1.224646799147353207E-16, -1.000000000000000000 ) ) ;
#95 = EDGE_LOOP ( 'NONE', ( #291, #14, #165 ) ) ;
#96 = EDGE_CURVE ( 'NONE', #259, #134, #16, .T. ) ;
#97 = AXIS2_PLACEMENT_3D ( 'NONE', #239, #304, #403 ) ;
#98 = DIRECTION ( 'NONE',  ( 0.0000000000000000000, 1.000000000000000000, 0.0000000000000000000 ) ) ;
#99 = ORIENTED_EDGE ( 'NONE', *, *, #364, .T. ) ;
#100 = ORIENTED_EDGE ( 'NONE', *, *, #115, .T. ) ;
#101 = PERSON_AND_ORGANIZATION ( #237, #258 ) ;
#102 = ORIENTED_EDGE ( 'NONE', *, *, #179, .T. ) ;
#103 = ORIENTED_EDGE ( 'NONE', *, *, #376, .T. ) ;
#104 = AXIS2_PLACEMENT_3D ( 'NONE', #232, #358, #256 ) ;
#105 = VERTEX_POINT ( 'NONE', #393 ) ;
#106 = CIRCLE ( 'NONE', #21, 0.7499999999999995559 ) ;
#107 = EDGE_CURVE ( 'NONE', #105, #163, #398, .T. ) ;
#108 = CARTESIAN_POINT ( 'NONE',  ( -0.7499999999999825695, 1.377727649040770663E-16, 5.000000000000003553 ) ) ;
#109 = APPROVAL_ROLE ( '' ) ;
#110 = CARTESIAN_POINT ( 'NONE',  ( 1.836970198721021306E-16, -1.499999999999998224, -1.836970198721033878E-16 ) ) ;
#111 = DIRECTION ( 'NONE',  ( -3.491481338843133355E-15, 0.0000000000000000000, -1.000000000000000000 ) ) ;
#112 = ORIENTED_EDGE ( 'NONE', *, *, #157, .T. ) ;
#113 = VERTEX_POINT ( 'NONE', #18 ) ;
#114 = FACE_OUTER_BOUND ( 'NONE', #227, .T. ) ;
#115 = EDGE_CURVE ( 'NONE', #70, #326, #234, .T. ) ;
#116 = DATE_AND_TIME ( #340, #389 ) ;
#117 = CYLINDRICAL_SURFACE ( 'NONE', #312, 1.499999999999998224 ) ;
#118 = FACE_OUTER_BOUND ( 'NONE', #330, .T. ) ;
#119 = CARTESIAN_POINT ( 'NONE',  ( 1.326762908760390423E-13, -4.653657836759941941E-15, 38.00000000000000000 ) ) ;
#120 = COORDINATED_UNIVERSAL_TIME_OFFSET ( 1, 0, .AHEAD. ) ;
#121 = DIRECTION ( 'NONE',  ( -3.491481338843133355E-15, 0.0000000000000000000, -1.000000000000000000 ) ) ;
#122 = AXIS2_PLACEMENT_3D ( 'NONE', #363, #149, #242 ) ;
#123 = PRODUCT_DEFINITION ( 'UNKNOWN', '', #290, #344 ) ;
#124 = CARTESIAN_POINT ( 'NONE',  ( 0.0000000000000000000, 0.0000000000000000000, 0.0000000000000000000 ) ) ;
#125 = DIRECTION ( 'NONE',  ( 1.000000000000000000, 0.0000000000000000000, -3.469446951953619711E-15 ) ) ;
#126 = APPROVAL_DATE_TIME ( #116, #214 ) ;
#127 = DIRECTION ( 'NONE',  ( 0.0000000000000000000, 1.000000000000000000, 0.0000000000000000000 ) ) ;
#128 = AXIS2_PLACEMENT_3D ( 'NONE', #158, #41, #286 ) ;
#129 = CARTESIAN_POINT ( 'NONE',  ( 1.316288464743861212E-13, -4.616918432785521081E-15, 37.69999999999999574 ) ) ;
#130 = CC_DESIGN_APPROVAL ( #311, ( #290 ) ) ;
#131 = CARTESIAN_POINT ( 'NONE',  ( 1.500000000000019540, 0.0000000000000000000, 6.299038105676646460 ) ) ;
#132 = EDGE_CURVE ( 'NONE', #276, #302, #12, .T. ) ;
#133 = DIRECTION ( 'NONE',  ( -3.491481338843133355E-15, 1.224646799147353207E-16, -1.000000000000000000 ) ) ;
#134 = VERTEX_POINT ( 'NONE', #220 ) ;
#135 = DIRECTION ( 'NONE',  ( 0.0000000000000000000, 0.0000000000000000000, 1.000000000000000000 ) ) ;
#136 = AXIS2_PLACEMENT_3D ( 'NONE', #374, #406, #56 ) ;
#137 = VERTEX_POINT ( 'NONE', #124 ) ;
#138 = ORIENTED_EDGE ( 'NONE', *, *, #364, .F. ) ;
#139 = DATE_AND_TIME ( #30, #91 ) ;
#140 = ORIENTED_EDGE ( 'NONE', *, *, #287, .F. ) ;
#141 = AXIS2_PLACEMENT_3D ( 'NONE', #332, #133, #44 ) ;
#142 = FACE_OUTER_BOUND ( 'NONE', #369, .T. ) ;
#143 = DATE_AND_TIME ( #298, #151 ) ;
#144 = ADVANCED_FACE ( 'NONE', ( #192 ), #52, .T. ) ;
#145 = CARTESIAN_POINT ( 'NONE',  ( 7.699460725638092300E-14, -1.500000000000005329, 37.69999999999999574 ) ) ;
#146 = DATE_AND_TIME ( #54, #357 ) ;
#147 = CARTESIAN_POINT ( 'NONE',  ( 2.618611004132379993E-15, 5.624099184981965345E-33, 0.7500000000000085487 ) ) ;
#148 = ORIENTED_EDGE ( 'NONE', *, *, #107, .T. ) ;
#149 = DIRECTION ( 'NONE',  ( 3.491481338843133355E-15, -1.224646799147353207E-16, 1.000000000000000000 ) ) ;
#150 = AXIS2_PLACEMENT_3D ( 'NONE', #292, #75, #98 ) ;
#151 = LOCAL_TIME ( 9, 47, 5.000000000000000000, #178 ) ;
#152 = DIRECTION ( 'NONE',  ( 4.275831445896958607E-31, 1.000000000000000000, 1.224646799147353207E-16 ) ) ;
#153 = DIRECTION ( 'NONE',  ( 3.491481338843133355E-15, -1.224646799147353207E-16, 1.000000000000000000 ) ) ;
#154 = ORIENTED_EDGE ( 'NONE', *, *, #224, .F. ) ;
#155 = AXIS2_PLACEMENT_3D ( 'NONE', #375, #26, #65 ) ;
#156 = DIRECTION ( 'NONE',  ( -1.000000000000000000, 0.0000000000000000000, 3.469446951953614189E-15 ) ) ;
#157 = EDGE_CURVE ( 'NONE', #385, #259, #196, .T. ) ;
#158 = CARTESIAN_POINT ( 'NONE',  ( 2.199297399863182860E-14, 0.0000000000000000000, 6.299038105676650900 ) ) ;
#159 = ORIENTED_EDGE ( 'NONE', *, *, #376, .F. ) ;
#160 = CARTESIAN_POINT ( 'NONE',  ( 2.618611004132379204E-15, -0.7500000000000002220, 0.7500000000000083267 ) ) ;
#161 = APPROVAL_STATUS ( 'not_yet_approved' ) ;
#162 = AXIS2_PLACEMENT_3D ( 'NONE', #24, #284, #156 ) ;
#163 = VERTEX_POINT ( 'NONE', #247 ) ;
#164 = DIRECTION ( 'NONE',  ( -1.000000000000000000, 0.0000000000000000000, 3.491481338843133355E-15 ) ) ;
#165 = ORIENTED_EDGE ( 'NONE', *, *, #392, .T. ) ;
#166 = AXIS2_PLACEMENT_3D ( 'NONE', #209, #394, #236 ) ;
#167 = FACE_OUTER_BOUND ( 'NONE', #353, .T. ) ;
#168 = VERTEX_POINT ( 'NONE', #187 ) ;
#169 = PERSON_AND_ORGANIZATION_ROLE ( 'design_supplier' ) ;
#170 = EDGE_CURVE ( 'NONE', #385, #276, #373, .T. ) ;
#171 = ORIENTED_EDGE ( 'NONE', *, *, #191, .F. ) ;
#172 = VERTEX_POINT ( 'NONE', #254 ) ;
#173 = ORIENTED_EDGE ( 'NONE', *, *, #267, .T. ) ;
#174 = PERSON_AND_ORGANIZATION ( #237, #258 ) ;
#175 = CARTESIAN_POINT ( 'NONE',  ( -1.499999999999975797, 1.836970198721026976E-16, 6.299038105676656230 ) ) ;
#176 = AXIS2_PLACEMENT_3D ( 'NONE', #280, #94, #197 ) ;
#177 = APPROVAL_PERSON_ORGANIZATION ( #174, #311, #109 ) ;
#178 = COORDINATED_UNIVERSAL_TIME_OFFSET ( 1, 0, .AHEAD. ) ;
#179 = EDGE_CURVE ( 'NONE', #172, #168, #318, .T. ) ;
#180 = LINE ( 'NONE', #300, #60 ) ;
#181 = DATE_TIME_ROLE ( 'creation_date' ) ;
#182 = DIRECTION ( 'NONE',  ( -3.491481338843133355E-15, 0.0000000000000000000, -1.000000000000000000 ) ) ;
#183 = LINE ( 'NONE', #305, #231 ) ;
#184 = APPROVAL_PERSON_ORGANIZATION ( #397, #214, #249 ) ;
#185 = CARTESIAN_POINT ( 'NONE',  ( -0.7499999999999970024, 0.0000000000000000000, 0.7500000000000022204 ) ) ;
#186 = ADVANCED_FACE ( 'NONE', ( #222 ), #251, .T. ) ;
#187 = CARTESIAN_POINT ( 'NONE',  ( 1.500000000000019540, 0.0000000000000000000, 6.299038105676646460 ) ) ;
#188 = SECURITY_CLASSIFICATION_LEVEL ( 'unclassified' ) ;
#189 = DIRECTION ( 'NONE',  ( -3.491481338843133355E-15, 0.0000000000000000000, -1.000000000000000000 ) ) ;
#190 = VECTOR ( 'NONE', #401, 1000.000000000000114 ) ;
#191 = EDGE_CURVE ( 'NONE', #172, #70, #84, .T. ) ;
#192 = FACE_OUTER_BOUND ( 'NONE', #95, .T. ) ;
#193 = CARTESIAN_POINT ( 'NONE',  ( -1.499999999999975797, 1.836970198721026976E-16, 6.299038105676656230 ) ) ;
#194 = DIRECTION ( 'NONE',  ( -1.000000000000000000, 0.0000000000000000000, 3.469446951953619711E-15 ) ) ;
#195 = APPROVAL_ROLE ( '' ) ;
#196 = CIRCLE ( 'NONE', #7, 1.200000000000000844 ) ;
#197 = DIRECTION ( 'NONE',  ( 0.0000000000000000000, 1.000000000000000000, 0.0000000000000000000 ) ) ;
#198 = EDGE_CURVE ( 'NONE', #42, #47, #69, .T. ) ;
#199 = EDGE_LOOP ( 'NONE', ( #349, #212, #303, #230 ) ) ;
#200 = PRODUCT ( '957231', '957231', '', ( #250 ) ) ;
#201 = ORIENTED_EDGE ( 'NONE', *, *, #179, .F. ) ;
#202 = PERSON_AND_ORGANIZATION_ROLE ( 'creator' ) ;
#203 = EDGE_CURVE ( 'NONE', #168, #302, #37, .T. ) ;
#204 = CIRCLE ( 'NONE', #371, 1.200000000000000844 ) ;
#205 = AXIS2_PLACEMENT_3D ( 'NONE', #64, #345, #125 ) ;
#206 = CYLINDRICAL_SURFACE ( 'NONE', #327, 0.7499999999999997780 ) ;
#207 = APPLICATION_CONTEXT ( 'configuration controlled 3d designs of mechanical parts and assemblies' ) ;
#208 = ORIENTED_EDGE ( 'NONE', *, *, #402, .T. ) ;
#209 = CARTESIAN_POINT ( 'NONE',  ( 2.199297399863182860E-14, 0.0000000000000000000, 6.299038105676650900 ) ) ;
#210 = CONICAL_SURFACE ( 'NONE', #150, 1.200000000000000844, 0.7853981633974453924 ) ;
#211 = CIRCLE ( 'NONE', #136, 1.500000000000000666 ) ;
#212 = ORIENTED_EDGE ( 'NONE', *, *, #170, .T. ) ;
#213 = DIRECTION ( 'NONE',  ( -3.491481338843133355E-15, 1.224646799147353207E-16, -1.000000000000000000 ) ) ;
#214 = APPROVAL ( #404, 'UNSPECIFIED' ) ;
#215 = DIRECTION ( 'NONE',  ( -4.275831445896958607E-31, -1.000000000000000000, -1.224646799147353207E-16 ) ) ;
#216 = AXIS2_PLACEMENT_3D ( 'NONE', #147, #235, #215 ) ;
#217 = DATE_TIME_ROLE ( 'classification_date' ) ;
#218 = ADVANCED_FACE ( 'NONE', ( #387 ), #206, .T. ) ;
#219 =( NAMED_UNIT ( * ) PLANE_ANGLE_UNIT ( ) SI_UNIT ( $, .RADIAN. ) );
#220 = CARTESIAN_POINT ( 'NONE',  ( 1.316288464743861212E-13, 1.499999999999996225, 37.69999999999999574 ) ) ;
#221 = DIRECTION ( 'NONE',  ( -3.491481338843133355E-15, 1.224646799147353207E-16, -1.000000000000000000 ) ) ;
#222 = FACE_OUTER_BOUND ( 'NONE', #199, .T. ) ;
#223 = APPLICATION_CONTEXT ( 'configuration controlled 3d designs of mechanical parts and assemblies' ) ;
#224 = EDGE_CURVE ( 'NONE', #113, #168, #356, .T. ) ;
#225 = AXIS2_PLACEMENT_3D ( 'NONE', #268, #244, #265 ) ;
#226 = APPLICATION_PROTOCOL_DEFINITION ( 'international standard', 'config_control_design', 1994, #223 ) ;
#227 = EDGE_LOOP ( 'NONE', ( #395, #40 ) ) ;
#228 = CC_DESIGN_DATE_AND_TIME_ASSIGNMENT ( #146, #217, ( #266 ) ) ;
#229 = ORIENTED_EDGE ( 'NONE', *, *, #343, .F. ) ;
#230 = ORIENTED_EDGE ( 'NONE', *, *, #96, .F. ) ;
#231 = VECTOR ( 'NONE', #362, 999.9999999999998863 ) ;
#232 = CARTESIAN_POINT ( 'NONE',  ( 2.199297399863182860E-14, 0.0000000000000000000, 6.299038105676650900 ) ) ;
#233 = ORIENTED_EDGE ( 'NONE', *, *, #67, .F. ) ;
#234 = LINE ( 'NONE', #175, #350 ) ;
#235 = DIRECTION ( 'NONE',  ( 3.491481338843133355E-15, -1.224646799147353207E-16, 1.000000000000000000 ) ) ;
#236 = DIRECTION ( 'NONE',  ( 1.000000000000000000, 0.0000000000000000000, -3.469446951953619711E-15 ) ) ;
#237 = PERSON ( 'UNSPECIFIED', 'UNSPECIFIED', 'UNSPECIFIED', ('UNSPECIFIED'), ('UNSPECIFIED'), ('UNSPECIFIED') ) ;
#238 = FACE_OUTER_BOUND ( 'NONE', #321, .T. ) ;
#239 = CARTESIAN_POINT ( 'NONE',  ( 0.0000000000000000000, 0.0000000000000000000, 0.0000000000000000000 ) ) ;
#240 = AXIS2_PLACEMENT_3D ( 'NONE', #368, #341, #309 ) ;
#241 = DIRECTION ( 'NONE',  ( -3.491481338843133355E-15, 1.224646799147353207E-16, -1.000000000000000000 ) ) ;
#242 = DIRECTION ( 'NONE',  ( -5.135813185032627774E-31, -1.000000000000000000, -1.445602896647338917E-16 ) ) ;
#243 = ORIENTED_EDGE ( 'NONE', *, *, #115, .F. ) ;
#244 = DIRECTION ( 'NONE',  ( -3.491481338843133355E-15, 1.224646799147353207E-16, -1.000000000000000000 ) ) ;
#245 = CARTESIAN_POINT ( 'NONE',  ( -0.7499999999999997780, 0.0000000000000000000, 2.618611004132349228E-15 ) ) ;
#246 = CIRCLE ( 'NONE', #11, 1.499999999999997558 ) ;
#247 = CARTESIAN_POINT ( 'NONE',  ( 2.710459514068431354E-15, 0.7500000000000000000, 0.7500000000000085487 ) ) ;
#248 = ADVANCED_FACE ( 'NONE', ( #5 ), #361, .T. ) ;
#249 = APPROVAL_ROLE ( '' ) ;
#250 = MECHANICAL_CONTEXT ( 'NONE', #223, 'mechanical' ) ;
#251 = CONICAL_SURFACE ( 'NONE', #176, 1.200000000000000844, 0.7853981633974453924 ) ;
#252 = PERSON_AND_ORGANIZATION_ROLE ( 'design_owner' ) ;
#253 =( GEOMETRIC_REPRESENTATION_CONTEXT ( 3 ) GLOBAL_UNCERTAINTY_ASSIGNED_CONTEXT ( ( #23 ) ) GLOBAL_UNIT_ASSIGNED_CONTEXT ( ( #89, #219, #283 ) ) REPRESENTATION_CONTEXT ( 'NONE', 'WORKASPACE' ) );
#254 = CARTESIAN_POINT ( 'NONE',  ( 0.7500000000000174305, 0.0000000000000000000, 4.999999999999998224 ) ) ;
#255 = ADVANCED_FACE ( 'NONE', ( #167 ), #210, .T. ) ;
#256 = DIRECTION ( 'NONE',  ( -1.000000000000000000, 0.0000000000000000000, 3.469446951953619711E-15 ) ) ;
#257 = VECTOR ( 'NONE', #313, 1000.000000000000114 ) ;
#258 = ORGANIZATION ( 'UNSPECIFIED', 'UNSPECIFIED', '' ) ;
#259 = VERTEX_POINT ( 'NONE', #352 ) ;
#260 = CC_DESIGN_PERSON_AND_ORGANIZATION_ASSIGNMENT ( #35, #252, ( #200 ) ) ;
#261 = MANIFOLD_SOLID_BREP ( 'Corps-Déplacer/Copier1[2]', #90 ) ;
#262 = EDGE_LOOP ( 'NONE', ( #34, #9, #43, #154, #138 ) ) ;
#263 = PERSON_AND_ORGANIZATION ( #237, #258 ) ;
#264 = ORIENTED_EDGE ( 'NONE', *, *, #198, .F. ) ;
#265 = DIRECTION ( 'NONE',  ( 4.275831445896958607E-31, 1.000000000000000000, 1.224646799147353207E-16 ) ) ;
#266 = SECURITY_CLASSIFICATION ( '', '', #188 ) ;
#267 = EDGE_CURVE ( 'NONE', #172, #47, #180, .T. ) ;
#268 = CARTESIAN_POINT ( 'NONE',  ( 1.326762908760390423E-13, 8.998558695971082698E-33, 38.00000000000000000 ) ) ;
#269 = ORIENTED_EDGE ( 'NONE', *, *, #170, .F. ) ;
#270 = LINE ( 'NONE', #245, #20 ) ;
#271 = MANIFOLD_SOLID_BREP ( 'Corps-Déplacer/Copier1[1]', #346 ) ;
#272 = ORIENTED_EDGE ( 'NONE', *, *, #13, .T. ) ;
#273 = AXIS2_PLACEMENT_3D ( 'NONE', #48, #73, #396 ) ;
#274 = EDGE_CURVE ( 'NONE', #70, #42, #270, .T. ) ;
#275 = CARTESIAN_POINT ( 'NONE',  ( 1.326762908760390423E-13, 1.199999999999996181, 38.00000000000000000 ) ) ;
#276 = VERTEX_POINT ( 'NONE', #145 ) ;
#277 = CYLINDRICAL_SURFACE ( 'NONE', #97, 0.7499999999999997780 ) ;
#278 = CONICAL_SURFACE ( 'NONE', #166, 1.499999999999997558, 0.5235987755983000369 ) ;
#279 = CC_DESIGN_SECURITY_CLASSIFICATION ( #266, ( #290 ) ) ;
#280 = CARTESIAN_POINT ( 'NONE',  ( 1.326762908760390423E-13, -4.653657836759941941E-15, 38.00000000000000000 ) ) ;
#281 = LINE ( 'NONE', #62, #351 ) ;
#282 = ADVANCED_FACE ( 'NONE', ( #297 ), #277, .T. ) ;
#283 =( NAMED_UNIT ( * ) SI_UNIT ( $, .STERADIAN. ) SOLID_ANGLE_UNIT ( ) );
#284 = DIRECTION ( 'NONE',  ( -3.491481338843133355E-15, 0.0000000000000000000, -1.000000000000000000 ) ) ;
#285 = ORIENTED_EDGE ( 'NONE', *, *, #274, .F. ) ;
#286 = DIRECTION ( 'NONE',  ( -1.000000000000000000, 0.0000000000000000000, 3.469446951953619711E-15 ) ) ;
#287 = EDGE_CURVE ( 'NONE', #326, #113, #246, .T. ) ;
#288 = ORIENTED_EDGE ( 'NONE', *, *, #107, .F. ) ;
#289 = CONICAL_SURFACE ( 'NONE', #122, 0.7500000000000001110, 0.7853981633974427279 ) ;
#290 = PRODUCT_DEFINITION_FORMATION_WITH_SPECIFIED_SOURCE ( 'ANY', '', #200, .NOT_KNOWN. ) ;
#291 = ORIENTED_EDGE ( 'NONE', *, *, #402, .F. ) ;
#292 = CARTESIAN_POINT ( 'NONE',  ( 1.326762908760390423E-13, -4.653657836759941941E-15, 38.00000000000000000 ) ) ;
#293 = ADVANCED_FACE ( 'NONE', ( #142 ), #278, .T. ) ;
#294 = APPROVAL_DATE_TIME ( #139, #8 ) ;
#295 = DIRECTION ( 'NONE',  ( -0.4999999999999979461, 6.123233995736778362E-17, 0.8660254037844397068 ) ) ;
#296 = AXIS2_PLACEMENT_3D ( 'NONE', #390, #50, #45 ) ;
#297 = FACE_OUTER_BOUND ( 'NONE', #66, .T. ) ;
#298 = CALENDAR_DATE ( 2021, 21, 9 ) ;
#299 = ORIENTED_EDGE ( 'NONE', *, *, #267, .F. ) ;
#300 = CARTESIAN_POINT ( 'NONE',  ( 0.7499999999999997780, 9.184850993605147205E-17, -2.618611004132349228E-15 ) ) ;
#301 = ADVANCED_FACE ( 'NONE', ( #118 ), #289, .T. ) ;
#302 = VERTEX_POINT ( 'NONE', #82 ) ;
#303 = ORIENTED_EDGE ( 'NONE', *, *, #337, .F. ) ;
#304 = DIRECTION ( 'NONE',  ( -3.491481338843133355E-15, 0.0000000000000000000, -1.000000000000000000 ) ) ;
#305 = CARTESIAN_POINT ( 'NONE',  ( 2.710459514068431354E-15, 0.7500000000000000000, 0.7500000000000085487 ) ) ;
#306 = VECTOR ( 'NONE', #88, 1000.000000000000000 ) ;
#307 = LOCAL_TIME ( 9, 47, 5.000000000000000000, #10 ) ;
#308 = COORDINATED_UNIVERSAL_TIME_OFFSET ( 1, 0, .AHEAD. ) ;
#309 = DIRECTION ( 'NONE',  ( 5.135813185032627774E-31, 1.000000000000000000, 1.445602896647338917E-16 ) ) ;
#310 = CARTESIAN_POINT ( 'NONE',  ( 2.618611004132348439E-15, 0.0000000000000000000, 0.7499999999999995559 ) ) ;
#311 = APPROVAL ( #365, 'UNSPECIFIED' ) ;
#312 = AXIS2_PLACEMENT_3D ( 'NONE', #338, #241, #152 ) ;
#313 = DIRECTION ( 'NONE',  ( 0.5000000000000039968, 0.0000000000000000000, 0.8660254037844363761 ) ) ;
#314 = ADVANCED_FACE ( 'NONE', ( #367 ), #77, .T. ) ;
#315 = DIRECTION ( 'NONE',  ( -1.000000000000000000, 0.0000000000000000000, 3.469446951953616161E-15 ) ) ;
#316 = COORDINATED_UNIVERSAL_TIME_OFFSET ( 1, 0, .AHEAD. ) ;
#317 = DIRECTION ( 'NONE',  ( 0.0000000000000000000, 1.000000000000000000, 0.0000000000000000000 ) ) ;
#318 = LINE ( 'NONE', #131, #257 ) ;
#319 = CIRCLE ( 'NONE', #273, 0.7500000000000000000 ) ;
#320 = ORIENTED_EDGE ( 'NONE', *, *, #96, .T. ) ;
#321 = EDGE_LOOP ( 'NONE', ( #233, #384 ) ) ;
#322 = PRODUCT_RELATED_PRODUCT_CATEGORY ( 'detail', '', ( #200 ) ) ;
#323 = ORIENTED_EDGE ( 'NONE', *, *, #13, .F. ) ;
#324 = PRODUCT_DEFINITION_SHAPE ( 'NONE', 'NONE',  #123 ) ;
#325 = CARTESIAN_POINT ( 'NONE',  ( 0.0000000000000000000, 0.0000000000000000000, 0.0000000000000000000 ) ) ;
#326 = VERTEX_POINT ( 'NONE', #193 ) ;
#327 = AXIS2_PLACEMENT_3D ( 'NONE', #325, #329, #164 ) ;
#328 = ORIENTED_EDGE ( 'NONE', *, *, #331, .F. ) ;
#329 = DIRECTION ( 'NONE',  ( -3.491481338843133355E-15, 0.0000000000000000000, -1.000000000000000000 ) ) ;
#330 = EDGE_LOOP ( 'NONE', ( #68, #208, #148 ) ) ;
#331 = EDGE_CURVE ( 'NONE', #276, #134, #211, .T. ) ;
#332 = CARTESIAN_POINT ( 'NONE',  ( 0.0000000000000000000, 0.0000000000000000000, 0.0000000000000000000 ) ) ;
#333 = ORIENTED_EDGE ( 'NONE', *, *, #224, .T. ) ;
#334 = DATE_AND_TIME ( #78, #307 ) ;
#335 = EDGE_LOOP ( 'NONE', ( #388, #391, #99, #140, #159 ) ) ;
#336 = DIRECTION ( 'NONE',  ( -3.491481338843133355E-15, 1.224646799147353207E-16, -1.000000000000000000 ) ) ;
#337 = EDGE_CURVE ( 'NONE', #134, #276, #32, .T. ) ;
#338 = CARTESIAN_POINT ( 'NONE',  ( 0.0000000000000000000, 0.0000000000000000000, 0.0000000000000000000 ) ) ;
#339 = FACE_OUTER_BOUND ( 'NONE', #335, .T. ) ;
#340 = CALENDAR_DATE ( 2021, 21, 9 ) ;
#341 = DIRECTION ( 'NONE',  ( -3.491481338843133355E-15, 1.224646799147353207E-16, -1.000000000000000000 ) ) ;
#342 = APPROVAL_PERSON_ORGANIZATION ( #378, #8, #195 ) ;
#343 = EDGE_CURVE ( 'NONE', #47, #42, #106, .T. ) ;
#344 = DESIGN_CONTEXT ( 'detailed design', #207, 'design' ) ;
#345 = DIRECTION ( 'NONE',  ( 3.491481338843133355E-15, 0.0000000000000000000, 1.000000000000000000 ) ) ;
#346 = CLOSED_SHELL ( 'NONE', ( #282, #293, #186, #248, #36, #255, #31, #314, #218, #19 ) ) ;
#347 = AXIS2_PLACEMENT_3D ( 'NONE', #27, #1, #407 ) ;
#348 = DIRECTION ( 'NONE',  ( -3.491481338843133355E-15, 0.0000000000000000000, -1.000000000000000000 ) ) ;
#349 = ORIENTED_EDGE ( 'NONE', *, *, #67, .T. ) ;
#350 = VECTOR ( 'NONE', #295, 1000.000000000000114 ) ;
#351 = VECTOR ( 'NONE', #221, 1000.000000000000000 ) ;
#352 = CARTESIAN_POINT ( 'NONE',  ( 1.326762908760390423E-13, 1.199999999999996181, 38.00000000000000000 ) ) ;
#353 = EDGE_LOOP ( 'NONE', ( #269, #112, #320, #328 ) ) ;
#354 = ORIENTED_EDGE ( 'NONE', *, *, #191, .T. ) ;
#355 = ORIENTED_EDGE ( 'NONE', *, *, #274, .T. ) ;
#356 = CIRCLE ( 'NONE', #104, 1.499999999999997558 ) ;
#357 = LOCAL_TIME ( 9, 47, 5.000000000000000000, #120 ) ;
#358 = DIRECTION ( 'NONE',  ( -3.491481338843133355E-15, 0.0000000000000000000, -1.000000000000000000 ) ) ;
#359 = EDGE_LOOP ( 'NONE', ( #299, #354, #355, #229 ) ) ;
#360 = DIRECTION ( 'NONE',  ( 0.0000000000000000000, 1.000000000000000000, 0.0000000000000000000 ) ) ;
#361 = CYLINDRICAL_SURFACE ( 'NONE', #141, 1.499999999999998224 ) ;
#362 = DIRECTION ( 'NONE',  ( 2.555445736705828601E-15, 0.7071067811865435759, 0.7071067811865515695 ) ) ;
#363 = CARTESIAN_POINT ( 'NONE',  ( 2.618611004132379599E-15, -9.184850993605253208E-17, 0.7500000000000084377 ) ) ;
#364 = EDGE_CURVE ( 'NONE', #134, #113, #281, .T. ) ;
#365 = APPROVAL_STATUS ( 'not_yet_approved' ) ;
#366 = PLANE ( 'NONE',  #296 ) ;
#367 = FACE_OUTER_BOUND ( 'NONE', #83, .T. ) ;
#368 = CARTESIAN_POINT ( 'NONE',  ( 2.618611004132379599E-15, -9.184850993605253208E-17, 0.7500000000000084377 ) ) ;
#369 = EDGE_LOOP ( 'NONE', ( #323, #100, #33, #333, #201 ) ) ;
#370 = DIRECTION ( 'NONE',  ( -1.000000000000000000, 0.0000000000000000000, 3.469446951953619711E-15 ) ) ;
#371 = AXIS2_PLACEMENT_3D ( 'NONE', #119, #213, #360 ) ;
#372 = CIRCLE ( 'NONE', #347, 0.7500000000000001110 ) ;
#373 = LINE ( 'NONE', #2, #306 ) ;
#374 = CARTESIAN_POINT ( 'NONE',  ( 1.316288464743861212E-13, -4.616918432785521081E-15, 37.69999999999999574 ) ) ;
#375 = CARTESIAN_POINT ( 'NONE',  ( 2.618611004132348439E-15, 0.0000000000000000000, 0.7499999999999995559 ) ) ;
#376 = EDGE_CURVE ( 'NONE', #302, #326, #399, .T. ) ;
#377 = VECTOR ( 'NONE', #3, 1000.000000000000000 ) ;
#378 = PERSON_AND_ORGANIZATION ( #237, #258 ) ;
#379 = CC_DESIGN_PERSON_AND_ORGANIZATION_ASSIGNMENT ( #57, #51, ( #266 ) ) ;
#380 = AXIS2_PLACEMENT_3D ( 'NONE', #59, #153, #28 ) ;
#381 = ORIENTED_EDGE ( 'NONE', *, *, #392, .F. ) ;
#382 = DIRECTION ( 'NONE',  ( 1.000000000000000000, 0.0000000000000000000, 0.0000000000000000000 ) ) ;
#383 = AXIS2_PLACEMENT_3D ( 'NONE', #61, #348, #194 ) ;
#384 = ORIENTED_EDGE ( 'NONE', *, *, #157, .F. ) ;
#385 = VERTEX_POINT ( 'NONE', #92 ) ;
#386 = PERSON_AND_ORGANIZATION_ROLE ( 'creator' ) ;
#387 = FACE_OUTER_BOUND ( 'NONE', #359, .T. ) ;
#388 = ORIENTED_EDGE ( 'NONE', *, *, #132, .F. ) ;
#389 = LOCAL_TIME ( 9, 47, 5.000000000000000000, #308 ) ;
#390 = CARTESIAN_POINT ( 'NONE',  ( 2.618611004132379993E-15, 5.624099184981965345E-33, 0.7500000000000085487 ) ) ;
#391 = ORIENTED_EDGE ( 'NONE', *, *, #331, .T. ) ;
#392 = EDGE_CURVE ( 'NONE', #163, #105, #372, .T. ) ;
#393 = CARTESIAN_POINT ( 'NONE',  ( 2.618611004132379204E-15, -0.7500000000000002220, 0.7500000000000083267 ) ) ;
#394 = DIRECTION ( 'NONE',  ( 3.491481338843133355E-15, 0.0000000000000000000, 1.000000000000000000 ) ) ;
#395 = ORIENTED_EDGE ( 'NONE', *, *, #198, .T. ) ;
#396 = DIRECTION ( 'NONE',  ( -1.000000000000000000, 0.0000000000000000000, 3.469446951953614189E-15 ) ) ;
#397 = PERSON_AND_ORGANIZATION ( #237, #258 ) ;
#398 = CIRCLE ( 'NONE', #240, 0.7500000000000001110 ) ;
#399 = CIRCLE ( 'NONE', #383, 1.499999999999997558 ) ;
#400 = CARTESIAN_POINT ( 'NONE',  ( 2.199297399863182860E-14, 0.0000000000000000000, 6.299038105676650900 ) ) ;
#401 = DIRECTION ( 'NONE',  ( -2.468850131082271655E-15, 0.7071067811865455743, -0.7071067811865493491 ) ) ;
#402 = EDGE_CURVE ( 'NONE', #137, #105, #29, .T. ) ;
#403 = DIRECTION ( 'NONE',  ( -1.000000000000000000, 0.0000000000000000000, 3.491481338843133355E-15 ) ) ;
#404 = APPROVAL_STATUS ( 'not_yet_approved' ) ;
#405 = ADVANCED_BREP_SHAPE_REPRESENTATION ( '957231', ( #271, #261, #71 ), #253 ) ;
#406 = DIRECTION ( 'NONE',  ( -3.491481338843133355E-15, 1.224646799147353207E-16, -1.000000000000000000 ) ) ;
#407 = DIRECTION ( 'NONE',  ( 5.135813185032627774E-31, 1.000000000000000000, 1.445602896647338917E-16 ) ) ;
ENDSEC;
END-ISO-10303-21;
