ISO-10303-21;
HEADER;
FILE_DESCRIPTION (( 'STEP AP203' ),
    '1' );
FILE_NAME ('957230.step',
    '2021-09-21T07:47:03',
    ( '' ),
    ( '' ),
    'SwSTEP 2.0',
    'SolidWorks 2019',
    '' );
FILE_SCHEMA (( 'CONFIG_CONTROL_DESIGN' ));
ENDSEC;

DATA;
#1 = ORIENTED_EDGE ( 'NONE', *, *, #19, .F. ) ;
#2 = ORIENTED_EDGE ( 'NONE', *, *, #65, .F. ) ;
#3 = DIRECTION ( 'NONE',  ( 0.0000000000000000000, 1.000000000000000000, 0.0000000000000000000 ) ) ;
#4 = AXIS2_PLACEMENT_3D ( 'NONE', #190, #406, #351 ) ;
#5 = DIRECTION ( 'NONE',  ( -3.491481338843133355E-15, 0.0000000000000000000, -1.000000000000000000 ) ) ;
#6 = LOCAL_TIME ( 9, 47, 3.000000000000000000, #303 ) ;
#7 = ORIENTED_EDGE ( 'NONE', *, *, #146, .F. ) ;
#8 = EDGE_CURVE ( 'NONE', #308, #294, #346, .T. ) ;
#9 = FACE_OUTER_BOUND ( 'NONE', #327, .T. ) ;
#10 = AXIS2_PLACEMENT_3D ( 'NONE', #366, #110, #239 ) ;
#11 = EDGE_CURVE ( 'NONE', #344, #354, #245, .T. ) ;
#12 = DIRECTION ( 'NONE',  ( -4.275831445896958607E-31, -1.000000000000000000, -1.224646799147353207E-16 ) ) ;
#13 = FACE_OUTER_BOUND ( 'NONE', #191, .T. ) ;
#14 = CIRCLE ( 'NONE', #395, 0.5000000000000002220 ) ;
#15 = LINE ( 'NONE', #97, #108 ) ;
#16 = PERSON_AND_ORGANIZATION ( #296, #214 ) ;
#17 = DIRECTION ( 'NONE',  ( -3.491481338843133355E-15, 0.0000000000000000000, -1.000000000000000000 ) ) ;
#18 = DATE_TIME_ROLE ( 'creation_date' ) ;
#19 = EDGE_CURVE ( 'NONE', #78, #321, #167, .T. ) ;
#20 = APPROVAL_PERSON_ORGANIZATION ( #208, #407, #306 ) ;
#21 = DIRECTION ( 'NONE',  ( -1.000000000000000000, 0.0000000000000000000, 3.469446951953619316E-15 ) ) ;
#22 = CARTESIAN_POINT ( 'NONE',  ( 1.316288464743861212E-13, 1.499999999999996225, 37.69999999999999574 ) ) ;
#23 = UNCERTAINTY_MEASURE_WITH_UNIT (LENGTH_MEASURE( 1.000000000000000082E-05 ), #210, 'distance_accuracy_value', 'NONE');
#24 = ORIENTED_EDGE ( 'NONE', *, *, #125, .F. ) ;
#25 = ADVANCED_FACE ( 'NONE', ( #123 ), #348, .T. ) ;
#26 = CARTESIAN_POINT ( 'NONE',  ( 0.0000000000000000000, 0.0000000000000000000, 0.0000000000000000000 ) ) ;
#27 = ORIENTED_EDGE ( 'NONE', *, *, #120, .T. ) ;
#28 = DIRECTION ( 'NONE',  ( -1.000000000000000000, 0.0000000000000000000, 3.469446951953620500E-15 ) ) ;
#29 = DIRECTION ( 'NONE',  ( 3.491481338843133355E-15, 0.0000000000000000000, 1.000000000000000000 ) ) ;
#30 = PRODUCT ( '957230', '957230', '', ( #115 ) ) ;
#31 = FACE_OUTER_BOUND ( 'NONE', #91, .T. ) ;
#32 = DIRECTION ( 'NONE',  ( -3.491481338843133355E-15, 1.224646799147353207E-16, -1.000000000000000000 ) ) ;
#33 = ADVANCED_FACE ( 'NONE', ( #31 ), #358, .T. ) ;
#34 = VECTOR ( 'NONE', #69, 1000.000000000000000 ) ;
#35 = CARTESIAN_POINT ( 'NONE',  ( 1.745740669421586399E-15, -1.084202172485516760E-16, 0.5000000000000056621 ) ) ;
#36 =( GEOMETRIC_REPRESENTATION_CONTEXT ( 3 ) GLOBAL_UNCERTAINTY_ASSIGNED_CONTEXT ( ( #23 ) ) GLOBAL_UNIT_ASSIGNED_CONTEXT ( ( #210, #341, #274 ) ) REPRESENTATION_CONTEXT ( 'NONE', 'WORKASPACE' ) );
#37 = CARTESIAN_POINT ( 'NONE',  ( 1.745740669421586399E-15, -1.084202172485516760E-16, 0.5000000000000056621 ) ) ;
#38 = LINE ( 'NONE', #249, #87 ) ;
#39 = CARTESIAN_POINT ( 'NONE',  ( 6.413747168845430903E-31, 1.499999999999998224, 1.836970198721027715E-16 ) ) ;
#40 = EDGE_CURVE ( 'NONE', #178, #253, #128, .T. ) ;
#41 = EDGE_LOOP ( 'NONE', ( #350, #286 ) ) ;
#42 = CARTESIAN_POINT ( 'NONE',  ( 0.0000000000000000000, 0.0000000000000000000, 0.0000000000000000000 ) ) ;
#44 = ORIENTED_EDGE ( 'NONE', *, *, #40, .T. ) ;
#43 = AXIS2_PLACEMENT_3D ( 'NONE', #35, #378, #278 ) ;
#45 = DIRECTION ( 'NONE',  ( -1.000000000000000000, 0.0000000000000000000, 3.469446951953618922E-15 ) ) ;
#46 = EDGE_CURVE ( 'NONE', #369, #113, #38, .T. ) ;
#47 = CONICAL_SURFACE ( 'NONE', #311, 0.5000000000000002220, 0.7853981633974428389 ) ;
#48 = DIRECTION ( 'NONE',  ( -3.491481338843133355E-15, 1.224646799147353207E-16, -1.000000000000000000 ) ) ;
#49 = APPROVAL_STATUS ( 'not_yet_approved' ) ;
#50 = EDGE_CURVE ( 'NONE', #368, #113, #372, .T. ) ;
#51 = PERSON_AND_ORGANIZATION ( #296, #214 ) ;
#52 = COORDINATED_UNIVERSAL_TIME_OFFSET ( 1, 0, .AHEAD. ) ;
#53 = DATE_AND_TIME ( #338, #251 ) ;
#54 = APPROVAL_DATE_TIME ( #337, #187 ) ;
#55 = ADVANCED_BREP_SHAPE_REPRESENTATION ( '957230', ( #289, #157, #318 ), #36 ) ;
#56 = AXIS2_PLACEMENT_3D ( 'NONE', #243, #179, #302 ) ;
#57 = ORIENTED_EDGE ( 'NONE', *, *, #301, .F. ) ;
#58 = ADVANCED_FACE ( 'NONE', ( #164 ), #64, .T. ) ;
#59 = DIRECTION ( 'NONE',  ( -3.491481338843133355E-15, 1.224646799147353207E-16, -1.000000000000000000 ) ) ;
#60 = DIRECTION ( 'NONE',  ( 0.5000000000000038858, 0.0000000000000000000, 0.8660254037844363761 ) ) ;
#61 = AXIS2_PLACEMENT_3D ( 'NONE', #388, #72, #45 ) ;
#62 = CARTESIAN_POINT ( 'NONE',  ( 1.745740669421563325E-15, 0.0000000000000000000, 0.4999999999999990563 ) ) ;
#63 = ORIENTED_EDGE ( 'NONE', *, *, #320, .T. ) ;
#64 = CYLINDRICAL_SURFACE ( 'NONE', #4, 1.499999999999998224 ) ;
#65 = EDGE_CURVE ( 'NONE', #272, #321, #284, .T. ) ;
#66 = CARTESIAN_POINT ( 'NONE',  ( 0.0000000000000000000, 0.0000000000000000000, 0.0000000000000000000 ) ) ;
#67 = ORIENTED_EDGE ( 'NONE', *, *, #134, .T. ) ;
#68 = CIRCLE ( 'NONE', #61, 0.4999999999999993339 ) ;
#69 = DIRECTION ( 'NONE',  ( 2.468850131082278754E-15, -0.7071067811865437980, 0.7071067811865513475 ) ) ;
#70 = DIRECTION ( 'NONE',  ( 4.275831445896958607E-31, 1.000000000000000000, 1.224646799147353207E-16 ) ) ;
#71 = ADVANCED_FACE ( 'NONE', ( #9 ), #201, .T. ) ;
#72 = DIRECTION ( 'NONE',  ( -3.491481338843133355E-15, 0.0000000000000000000, -1.000000000000000000 ) ) ;
#73 = LINE ( 'NONE', #353, #122 ) ;
#74 = LINE ( 'NONE', #39, #138 ) ;
#75 = CARTESIAN_POINT ( 'NONE',  ( 0.4999999999999993339, 6.123233995736758640E-17, -1.745740669421564508E-15 ) ) ;
#76 = ORIENTED_EDGE ( 'NONE', *, *, #205, .F. ) ;
#77 = CARTESIAN_POINT ( 'NONE',  ( 1.328232484919367446E-13, -1.200000000000005285, 38.00000000000000000 ) ) ;
#78 = VERTEX_POINT ( 'NONE', #130 ) ;
#79 = CLOSED_SHELL ( 'NONE', ( #216, #33, #25 ) ) ;
#80 = AXIS2_PLACEMENT_3D ( 'NONE', #349, #168, #224 ) ;
#81 = CC_DESIGN_DATE_AND_TIME_ASSIGNMENT ( #269, #185, ( #88 ) ) ;
#82 = COORDINATED_UNIVERSAL_TIME_OFFSET ( 1, 0, .AHEAD. ) ;
#83 = APPROVAL_DATE_TIME ( #174, #114 ) ;
#84 = FACE_OUTER_BOUND ( 'NONE', #345, .T. ) ;
#85 = PERSON_AND_ORGANIZATION ( #296, #214 ) ;
#86 = CARTESIAN_POINT ( 'NONE',  ( 1.745740669421586399E-15, -6.123233995736835061E-17, 0.5000000000000056621 ) ) ;
#87 = VECTOR ( 'NONE', #60, 999.9999999999998863 ) ;
#88 = SECURITY_CLASSIFICATION ( '', '', #373 ) ;
#89 = CARTESIAN_POINT ( 'NONE',  ( 1.047444401652940007E-14, 0.0000000000000000000, 3.000000000000000000 ) ) ;
#90 = ORIENTED_EDGE ( 'NONE', *, *, #301, .T. ) ;
#91 = EDGE_LOOP ( 'NONE', ( #282, #99, #375 ) ) ;
#92 = DIRECTION ( 'NONE',  ( -3.491481338843133355E-15, 1.224646799147353207E-16, -1.000000000000000000 ) ) ;
#93 = AXIS2_PLACEMENT_3D ( 'NONE', #62, #5, #196 ) ;
#94 = AXIS2_PLACEMENT_3D ( 'NONE', #86, #59, #151 ) ;
#95 = ORIENTED_EDGE ( 'NONE', *, *, #50, .T. ) ;
#96 = ORIENTED_EDGE ( 'NONE', *, *, #205, .T. ) ;
#97 = CARTESIAN_POINT ( 'NONE',  ( -1.499999999999980904, 1.836970198721026729E-16, 4.732050807568874973 ) ) ;
#98 = CARTESIAN_POINT ( 'NONE',  ( 1.326762908760390423E-13, -4.653657836759941941E-15, 38.00000000000000000 ) ) ;
#99 = ORIENTED_EDGE ( 'NONE', *, *, #8, .T. ) ;
#100 = CARTESIAN_POINT ( 'NONE',  ( 1.326762908760390423E-13, 1.199999999999996181, 38.00000000000000000 ) ) ;
#101 = DIRECTION ( 'NONE',  ( -3.491481338843133355E-15, 0.0000000000000000000, -1.000000000000000000 ) ) ;
#102 = ADVANCED_FACE ( 'NONE', ( #218 ), #389, .T. ) ;
#103 = CARTESIAN_POINT ( 'NONE',  ( 1.806973009378954368E-15, 0.5000000000000001110, 0.5000000000000057732 ) ) ;
#104 = CIRCLE ( 'NONE', #144, 1.499999999999997335 ) ;
#105 = DIRECTION ( 'NONE',  ( -3.491481338843133355E-15, 0.0000000000000000000, -1.000000000000000000 ) ) ;
#106 = LINE ( 'NONE', #103, #352 ) ;
#107 = CC_DESIGN_PERSON_AND_ORGANIZATION_ASSIGNMENT ( #298, #364, ( #340 ) ) ;
#108 = VECTOR ( 'NONE', #315, 1000.000000000000114 ) ;
#109 = ORIENTED_EDGE ( 'NONE', *, *, #11, .T. ) ;
#110 = DIRECTION ( 'NONE',  ( -3.491481338843133355E-15, 1.224646799147353207E-16, -1.000000000000000000 ) ) ;
#111 = CARTESIAN_POINT ( 'NONE',  ( 1.745740669421586399E-15, -6.123233995736835061E-17, 0.5000000000000056621 ) ) ;
#112 = APPLICATION_CONTEXT ( 'configuration controlled 3d designs of mechanical parts and assemblies' ) ;
#113 = VERTEX_POINT ( 'NONE', #254 ) ;
#114 = APPROVAL ( #150, 'UNSPECIFIED' ) ;
#115 = MECHANICAL_CONTEXT ( 'NONE', #112, 'mechanical' ) ;
#116 = AXIS2_PLACEMENT_3D ( 'NONE', #328, #32, #292 ) ;
#117 = COORDINATED_UNIVERSAL_TIME_OFFSET ( 1, 0, .AHEAD. ) ;
#118 = EDGE_LOOP ( 'NONE', ( #312, #67, #371, #2 ) ) ;
#119 = CARTESIAN_POINT ( 'NONE',  ( 1.326762908760390423E-13, 8.998558695971082698E-33, 38.00000000000000000 ) ) ;
#120 = EDGE_CURVE ( 'NONE', #354, #368, #182, .T. ) ;
#121 = APPROVAL_STATUS ( 'not_yet_approved' ) ;
#122 = VECTOR ( 'NONE', #105, 1000.000000000000000 ) ;
#123 = FACE_OUTER_BOUND ( 'NONE', #41, .T. ) ;
#124 = DIRECTION ( 'NONE',  ( -3.491481338843133355E-15, 1.224646799147353207E-16, -1.000000000000000000 ) ) ;
#125 = EDGE_CURVE ( 'NONE', #272, #175, #177, .T. ) ;
#126 = LINE ( 'NONE', #77, #225 ) ;
#127 = ORIENTED_EDGE ( 'NONE', *, *, #46, .T. ) ;
#128 = CIRCLE ( 'NONE', #93, 0.4999999999999993339 ) ;
#129 = APPROVAL_PERSON_ORGANIZATION ( #365, #187, #374 ) ;
#130 = CARTESIAN_POINT ( 'NONE',  ( 7.425905380160713417E-14, -1.500000000000005329, 37.69999999999999574 ) ) ;
#131 = ORIENTED_EDGE ( 'NONE', *, *, #120, .F. ) ;
#132 = DIRECTION ( 'NONE',  ( -7.703719777548939909E-31, -1.000000000000000000, -2.168404344971007882E-16 ) ) ;
#133 = DIRECTION ( 'NONE',  ( 0.0000000000000000000, 1.000000000000000000, 0.0000000000000000000 ) ) ;
#134 = EDGE_CURVE ( 'NONE', #175, #78, #126, .T. ) ;
#135 = DIRECTION ( 'NONE',  ( -3.491481338843133355E-15, 0.0000000000000000000, -1.000000000000000000 ) ) ;
#136 = DIRECTION ( 'NONE',  ( 7.703719777548939909E-31, 1.000000000000000000, 2.168404344971007882E-16 ) ) ;
#137 = PLANE ( 'NONE',  #268 ) ;
#138 = VECTOR ( 'NONE', #263, 1000.000000000000000 ) ;
#139 = DIRECTION ( 'NONE',  ( -1.000000000000000000, 0.0000000000000000000, 3.469446951953620500E-15 ) ) ;
#140 = LINE ( 'NONE', #75, #402 ) ;
#141 = DIRECTION ( 'NONE',  ( 3.491481338843133355E-15, 0.0000000000000000000, 1.000000000000000000 ) ) ;
#142 = ORIENTED_EDGE ( 'NONE', *, *, #377, .T. ) ;
#143 = CARTESIAN_POINT ( 'NONE',  ( 1.323178959930974653E-13, -1.200000000000005285, 38.00000000000000000 ) ) ;
#144 = AXIS2_PLACEMENT_3D ( 'NONE', #203, #326, #139 ) ;
#145 = ORIENTED_EDGE ( 'NONE', *, *, #291, .F. ) ;
#146 = EDGE_CURVE ( 'NONE', #113, #344, #104, .T. ) ;
#147 = DIRECTION ( 'NONE',  ( -1.000000000000000000, 0.0000000000000000000, 3.491481338843133750E-15 ) ) ;
#148 = ORIENTED_EDGE ( 'NONE', *, *, #377, .F. ) ;
#149 = DIRECTION ( 'NONE',  ( 0.0000000000000000000, 0.0000000000000000000, 1.000000000000000000 ) ) ;
#150 = APPROVAL_STATUS ( 'not_yet_approved' ) ;
#151 = DIRECTION ( 'NONE',  ( 7.703719777548939909E-31, 1.000000000000000000, 2.168404344971007882E-16 ) ) ;
#152 = APPROVAL_ROLE ( '' ) ;
#153 = CARTESIAN_POINT ( 'NONE',  ( 7.425905380160724777E-14, -1.499999999999997335, 4.732050807568869644 ) ) ;
#154 = DESIGN_CONTEXT ( 'detailed design', #335, 'design' ) ;
#155 = ORIENTED_EDGE ( 'NONE', *, *, #65, .T. ) ;
#156 = CARTESIAN_POINT ( 'NONE',  ( -1.499999999999980904, 1.836970198721026729E-16, 4.732050807568874973 ) ) ;
#157 = MANIFOLD_SOLID_BREP ( 'Corps-Déplacer/Copier1[2]', #79 ) ;
#158 = EDGE_LOOP ( 'NONE', ( #148, #90, #27, #95, #295 ) ) ;
#159 = AXIS2_PLACEMENT_3D ( 'NONE', #119, #48, #215 ) ;
#160 = CARTESIAN_POINT ( 'NONE',  ( 1.745740669421586399E-15, -6.123233995736835061E-17, 0.5000000000000056621 ) ) ;
#161 = DIRECTION ( 'NONE',  ( -2.468850131082271655E-15, 0.7071067811865455743, -0.7071067811865493491 ) ) ;
#162 = EDGE_CURVE ( 'NONE', #369, #178, #140, .T. ) ;
#163 = DIRECTION ( 'NONE',  ( -1.000000000000000000, 0.0000000000000000000, 3.469446951953620500E-15 ) ) ;
#164 = FACE_OUTER_BOUND ( 'NONE', #393, .T. ) ;
#165 = ORIENTED_EDGE ( 'NONE', *, *, #11, .F. ) ;
#166 = CYLINDRICAL_SURFACE ( 'NONE', #279, 0.4999999999999993339 ) ;
#167 = CIRCLE ( 'NONE', #329, 1.500000000000000666 ) ;
#168 = DIRECTION ( 'NONE',  ( 3.491481338843133355E-15, -1.224646799147353207E-16, 1.000000000000000000 ) ) ;
#169 = ORIENTED_EDGE ( 'NONE', *, *, #275, .T. ) ;
#170 = DIRECTION ( 'NONE',  ( -3.491481338843133355E-15, 1.224646799147353207E-16, -1.000000000000000000 ) ) ;
#171 = CARTESIAN_POINT ( 'NONE',  ( -0.4999999999999976130, 0.0000000000000000000, 0.5000000000000007772 ) ) ;
#172 = AXIS2_PLACEMENT_3D ( 'NONE', #316, #101, #163 ) ;
#173 = FACE_OUTER_BOUND ( 'NONE', #229, .T. ) ;
#174 = DATE_AND_TIME ( #266, #382 ) ;
#175 = VERTEX_POINT ( 'NONE', #143 ) ;
#176 = ADVANCED_FACE ( 'NONE', ( #13 ), #250, .T. ) ;
#177 = CIRCLE ( 'NONE', #317, 1.200000000000000844 ) ;
#178 = VERTEX_POINT ( 'NONE', #397 ) ;
#179 = DIRECTION ( 'NONE',  ( -3.491481338843133355E-15, 1.224646799147353207E-16, -1.000000000000000000 ) ) ;
#180 = APPROVAL_DATE_TIME ( #53, #407 ) ;
#181 = PERSON_AND_ORGANIZATION_ROLE ( 'creator' ) ;
#182 = CIRCLE ( 'NONE', #379, 1.499999999999997335 ) ;
#183 = CC_DESIGN_APPROVAL ( #407, ( #88 ) ) ;
#184 = CC_DESIGN_PERSON_AND_ORGANIZATION_ASSIGNMENT ( #85, #244, ( #30 ) ) ;
#185 = DATE_TIME_ROLE ( 'classification_date' ) ;
#186 = CARTESIAN_POINT ( 'NONE',  ( 0.5000000000000097700, 0.0000000000000000000, 2.999999999999998224 ) ) ;
#187 = APPROVAL ( #121, 'UNSPECIFIED' ) ;
#188 = DIRECTION ( 'NONE',  ( -1.000000000000000000, 0.0000000000000000000, 3.469446951953620500E-15 ) ) ;
#189 = CIRCLE ( 'NONE', #94, 0.5000000000000002220 ) ;
#190 = CARTESIAN_POINT ( 'NONE',  ( 0.0000000000000000000, 0.0000000000000000000, 0.0000000000000000000 ) ) ;
#191 = EDGE_LOOP ( 'NONE', ( #57, #237, #127, #322, #109 ) ) ;
#192 = CARTESIAN_POINT ( 'NONE',  ( 0.0000000000000000000, 0.0000000000000000000, 0.0000000000000000000 ) ) ;
#193 = ORIENTED_EDGE ( 'NONE', *, *, #134, .F. ) ;
#194 = CC_DESIGN_PERSON_AND_ORGANIZATION_ASSIGNMENT ( #51, #181, ( #361 ) ) ;
#195 = AXIS2_PLACEMENT_3D ( 'NONE', #226, #141, #258 ) ;
#196 = DIRECTION ( 'NONE',  ( -1.000000000000000000, 0.0000000000000000000, 3.469446951953618922E-15 ) ) ;
#197 = CARTESIAN_POINT ( 'NONE',  ( 1.806973009378954368E-15, 0.5000000000000001110, 0.5000000000000057732 ) ) ;
#198 = EDGE_LOOP ( 'NONE', ( #142, #324, #76, #234 ) ) ;
#199 = EDGE_CURVE ( 'NONE', #294, #300, #14, .T. ) ;
#200 = CARTESIAN_POINT ( 'NONE',  ( 1.745740669421586005E-15, -0.5000000000000003331, 0.5000000000000055511 ) ) ;
#201 = CONICAL_SURFACE ( 'NONE', #256, 1.200000000000000844, 0.7853981633974453924 ) ;
#202 = LOCAL_TIME ( 9, 47, 3.000000000000000000, #82 ) ;
#203 = CARTESIAN_POINT ( 'NONE',  ( 1.652186708908428881E-14, 0.0000000000000000000, 4.732050807568869644 ) ) ;
#204 = ORIENTED_EDGE ( 'NONE', *, *, #291, .T. ) ;
#205 = EDGE_CURVE ( 'NONE', #253, #178, #68, .T. ) ;
#206 = CIRCLE ( 'NONE', #220, 0.4999999999999992784 ) ;
#207 = CALENDAR_DATE ( 2021, 21, 9 ) ;
#208 = PERSON_AND_ORGANIZATION ( #296, #214 ) ;
#209 = EDGE_CURVE ( 'NONE', #321, #78, #293, .T. ) ;
#210 =( LENGTH_UNIT ( ) NAMED_UNIT ( * ) SI_UNIT ( .MILLI., .METRE. ) );
#211 = COORDINATED_UNIVERSAL_TIME_OFFSET ( 1, 0, .AHEAD. ) ;
#212 = CARTESIAN_POINT ( 'NONE',  ( 0.0000000000000000000, 0.0000000000000000000, 0.0000000000000000000 ) ) ;
#213 = VECTOR ( 'NONE', #170, 1000.000000000000000 ) ;
#214 = ORGANIZATION ( 'UNSPECIFIED', 'UNSPECIFIED', '' ) ;
#215 = DIRECTION ( 'NONE',  ( 4.275831445896958607E-31, 1.000000000000000000, 1.224646799147353207E-16 ) ) ;
#216 = ADVANCED_FACE ( 'NONE', ( #84 ), #47, .T. ) ;
#217 = CARTESIAN_POINT ( 'NONE',  ( 1.316288464743861212E-13, -4.616918432785521081E-15, 37.69999999999999574 ) ) ;
#218 = FACE_OUTER_BOUND ( 'NONE', #158, .T. ) ;
#219 = ORIENTED_EDGE ( 'NONE', *, *, #162, .F. ) ;
#220 = AXIS2_PLACEMENT_3D ( 'NONE', #89, #17, #21 ) ;
#221 = CARTESIAN_POINT ( 'NONE',  ( 1.745740669421586005E-15, -0.5000000000000003331, 0.5000000000000055511 ) ) ;
#222 = CARTESIAN_POINT ( 'NONE',  ( 1.652186708908428881E-14, 0.0000000000000000000, 4.732050807568869644 ) ) ;
#223 = ADVANCED_FACE ( 'NONE', ( #173 ), #137, .F. ) ;
#224 = DIRECTION ( 'NONE',  ( -7.703719777548939909E-31, -1.000000000000000000, -2.168404344971007882E-16 ) ) ;
#225 = VECTOR ( 'NONE', #233, 1000.000000000000000 ) ;
#226 = CARTESIAN_POINT ( 'NONE',  ( 1.652186708908428881E-14, 0.0000000000000000000, 4.732050807568869644 ) ) ;
#227 = LINE ( 'NONE', #325, #213 ) ;
#228 = EDGE_CURVE ( 'NONE', #369, #248, #405, .T. ) ;
#229 = EDGE_LOOP ( 'NONE', ( #96, #44 ) ) ;
#230 = FACE_OUTER_BOUND ( 'NONE', #297, .T. ) ;
#231 = AXIS2_PLACEMENT_3D ( 'NONE', #257, #135, #323 ) ;
#232 = CC_DESIGN_SECURITY_CLASSIFICATION ( #88, ( #340 ) ) ;
#233 = DIRECTION ( 'NONE',  ( -2.382254525458723780E-15, -0.7071067811865453523, -0.7071067811865496822 ) ) ;
#234 = ORIENTED_EDGE ( 'NONE', *, *, #252, .F. ) ;
#235 = ORIENTED_EDGE ( 'NONE', *, *, #267, .T. ) ;
#236 = DIRECTION ( 'NONE',  ( -1.000000000000000000, 0.0000000000000000000, 3.491481338843133750E-15 ) ) ;
#237 = ORIENTED_EDGE ( 'NONE', *, *, #228, .F. ) ;
#238 = PERSON_AND_ORGANIZATION ( #296, #214 ) ;
#239 = DIRECTION ( 'NONE',  ( 0.0000000000000000000, 1.000000000000000000, 0.0000000000000000000 ) ) ;
#240 = AXIS2_PLACEMENT_3D ( 'NONE', #222, #380, #28 ) ;
#241 = ADVANCED_FACE ( 'NONE', ( #387 ), #166, .T. ) ;
#242 = ORIENTED_EDGE ( 'NONE', *, *, #252, .T. ) ;
#243 = CARTESIAN_POINT ( 'NONE',  ( 1.326762908760390423E-13, -4.653657836759941941E-15, 38.00000000000000000 ) ) ;
#244 = PERSON_AND_ORGANIZATION_ROLE ( 'design_owner' ) ;
#245 = CIRCLE ( 'NONE', #172, 1.499999999999997335 ) ;
#246 = DIRECTION ( 'NONE',  ( 0.0000000000000000000, 1.000000000000000000, 0.0000000000000000000 ) ) ;
#247 = ORIENTED_EDGE ( 'NONE', *, *, #40, .F. ) ;
#248 = VERTEX_POINT ( 'NONE', #255 ) ;
#249 = CARTESIAN_POINT ( 'NONE',  ( 1.500000000000013989, 0.0000000000000000000, 4.732050807568865203 ) ) ;
#250 = CONICAL_SURFACE ( 'NONE', #195, 1.499999999999997335, 0.5235987755982999259 ) ;
#251 = LOCAL_TIME ( 9, 47, 3.000000000000000000, #117 ) ;
#252 = EDGE_CURVE ( 'NONE', #248, #253, #73, .T. ) ;
#253 = VERTEX_POINT ( 'NONE', #171 ) ;
#254 = CARTESIAN_POINT ( 'NONE',  ( 1.500000000000013989, 0.0000000000000000000, 4.732050807568865203 ) ) ;
#255 = CARTESIAN_POINT ( 'NONE',  ( -0.4999999999999887312, 1.224646799147351235E-16, 3.000000000000001776 ) ) ;
#256 = AXIS2_PLACEMENT_3D ( 'NONE', #98, #280, #133 ) ;
#257 = CARTESIAN_POINT ( 'NONE',  ( 1.047444401652940007E-14, 0.0000000000000000000, 3.000000000000000000 ) ) ;
#258 = DIRECTION ( 'NONE',  ( 1.000000000000000000, 0.0000000000000000000, -3.469446951953620500E-15 ) ) ;
#259 = CLOSED_SHELL ( 'NONE', ( #241, #102, #392, #283, #58, #71, #330, #176, #342, #223 ) ) ;
#260 = CC_DESIGN_APPROVAL ( #114, ( #340 ) ) ;
#261 = CC_DESIGN_PERSON_AND_ORGANIZATION_ASSIGNMENT ( #16, #370, ( #88 ) ) ;
#262 = EDGE_LOOP ( 'NONE', ( #24, #360 ) ) ;
#263 = DIRECTION ( 'NONE',  ( -3.491481338843133355E-15, 1.224646799147353207E-16, -1.000000000000000000 ) ) ;
#264 = DATE_AND_TIME ( #305, #6 ) ;
#265 = PLANE ( 'NONE',  #159 ) ;
#266 = CALENDAR_DATE ( 2021, 21, 9 ) ;
#267 = EDGE_CURVE ( 'NONE', #308, #300, #106, .T. ) ;
#268 = AXIS2_PLACEMENT_3D ( 'NONE', #37, #319, #12 ) ;
#269 = DATE_AND_TIME ( #336, #359 ) ;
#270 = VECTOR ( 'NONE', #161, 1000.000000000000114 ) ;
#271 = FACE_OUTER_BOUND ( 'NONE', #118, .T. ) ;
#272 = VERTEX_POINT ( 'NONE', #100 ) ;
#273 = SHAPE_DEFINITION_REPRESENTATION ( #381, #55 ) ;
#274 =( NAMED_UNIT ( * ) SI_UNIT ( $, .STERADIAN. ) SOLID_ANGLE_UNIT ( ) );
#275 = EDGE_CURVE ( 'NONE', #78, #344, #227, .T. ) ;
#276 = CYLINDRICAL_SURFACE ( 'NONE', #363, 0.4999999999999993339 ) ;
#277 = ORIENTED_EDGE ( 'NONE', *, *, #275, .F. ) ;
#278 = DIRECTION ( 'NONE',  ( -4.275831445896958607E-31, -1.000000000000000000, -1.224646799147353207E-16 ) ) ;
#279 = AXIS2_PLACEMENT_3D ( 'NONE', #42, #391, #147 ) ;
#280 = DIRECTION ( 'NONE',  ( -3.491481338843133355E-15, 1.224646799147353207E-16, -1.000000000000000000 ) ) ;
#281 = CARTESIAN_POINT ( 'NONE',  ( 1.652186708908428881E-14, 0.0000000000000000000, 4.732050807568869644 ) ) ;
#282 = ORIENTED_EDGE ( 'NONE', *, *, #267, .F. ) ;
#283 = ADVANCED_FACE ( 'NONE', ( #230 ), #355, .T. ) ;
#284 = LINE ( 'NONE', #288, #270 ) ;
#286 = ORIENTED_EDGE ( 'NONE', *, *, #386, .F. ) ;
#285 = AXIS2_PLACEMENT_3D ( 'NONE', #66, #290, #70 ) ;
#287 = CC_DESIGN_APPROVAL ( #187, ( #361 ) ) ;
#288 = CARTESIAN_POINT ( 'NONE',  ( 1.326762908760390423E-13, 1.199999999999996181, 38.00000000000000000 ) ) ;
#289 = MANIFOLD_SOLID_BREP ( 'Corps-Déplacer/Copier1[1]', #259 ) ;
#290 = DIRECTION ( 'NONE',  ( -3.491481338843133355E-15, 1.224646799147353207E-16, -1.000000000000000000 ) ) ;
#291 = EDGE_CURVE ( 'NONE', #321, #368, #74, .T. ) ;
#292 = DIRECTION ( 'NONE',  ( 0.0000000000000000000, 1.000000000000000000, 0.0000000000000000000 ) ) ;
#293 = CIRCLE ( 'NONE', #10, 1.500000000000000666 ) ;
#294 = VERTEX_POINT ( 'NONE', #200 ) ;
#295 = ORIENTED_EDGE ( 'NONE', *, *, #46, .F. ) ;
#296 = PERSON ( 'UNSPECIFIED', 'UNSPECIFIED', 'UNSPECIFIED', ('UNSPECIFIED'), ('UNSPECIFIED'), ('UNSPECIFIED') ) ;
#297 = EDGE_LOOP ( 'NONE', ( #390, #169, #7, #362, #145 ) ) ;
#298 = PERSON_AND_ORGANIZATION ( #296, #214 ) ;
#299 = DIRECTION ( 'NONE',  ( 2.555445736705828206E-15, 0.7071067811865435759, 0.7071067811865515695 ) ) ;
#300 = VERTEX_POINT ( 'NONE', #197 ) ;
#301 = EDGE_CURVE ( 'NONE', #248, #354, #15, .T. ) ;
#302 = DIRECTION ( 'NONE',  ( 0.0000000000000000000, 1.000000000000000000, 0.0000000000000000000 ) ) ;
#303 = COORDINATED_UNIVERSAL_TIME_OFFSET ( 1, 0, .AHEAD. ) ;
#304 = CONICAL_SURFACE ( 'NONE', #56, 1.200000000000000844, 0.7853981633974453924 ) ;
#305 = CALENDAR_DATE ( 2021, 21, 9 ) ;
#306 = APPROVAL_ROLE ( '' ) ;
#307 = DIRECTION ( 'NONE',  ( 1.000000000000000000, 0.0000000000000000000, 0.0000000000000000000 ) ) ;
#308 = VERTEX_POINT ( 'NONE', #192 ) ;
#309 = DIRECTION ( 'NONE',  ( -3.491481338843133355E-15, 0.0000000000000000000, -1.000000000000000000 ) ) ;
#310 = CARTESIAN_POINT ( 'NONE',  ( 1.326762908760390423E-13, -4.653657836759941941E-15, 38.00000000000000000 ) ) ;
#311 = AXIS2_PLACEMENT_3D ( 'NONE', #160, #384, #132 ) ;
#312 = ORIENTED_EDGE ( 'NONE', *, *, #125, .T. ) ;
#313 = ORIENTED_EDGE ( 'NONE', *, *, #8, .F. ) ;
#314 = ORIENTED_EDGE ( 'NONE', *, *, #19, .T. ) ;
#315 = DIRECTION ( 'NONE',  ( -0.4999999999999978351, 6.123233995736777129E-17, 0.8660254037844398178 ) ) ;
#316 = CARTESIAN_POINT ( 'NONE',  ( 1.652186708908428881E-14, 0.0000000000000000000, 4.732050807568869644 ) ) ;
#317 = AXIS2_PLACEMENT_3D ( 'NONE', #310, #92, #3 ) ;
#318 = AXIS2_PLACEMENT_3D ( 'NONE', #212, #149, #307 ) ;
#319 = DIRECTION ( 'NONE',  ( 3.491481338843133355E-15, -1.224646799147353207E-16, 1.000000000000000000 ) ) ;
#320 = EDGE_CURVE ( 'NONE', #175, #272, #333, .T. ) ;
#321 = VERTEX_POINT ( 'NONE', #22 ) ;
#322 = ORIENTED_EDGE ( 'NONE', *, *, #146, .T. ) ;
#323 = DIRECTION ( 'NONE',  ( -1.000000000000000000, 0.0000000000000000000, 3.469446951953619316E-15 ) ) ;
#324 = ORIENTED_EDGE ( 'NONE', *, *, #162, .T. ) ;
#325 = CARTESIAN_POINT ( 'NONE',  ( 1.836970198721021306E-16, -1.499999999999998224, -1.836970198721033878E-16 ) ) ;
#326 = DIRECTION ( 'NONE',  ( -3.491481338843133355E-15, 0.0000000000000000000, -1.000000000000000000 ) ) ;
#327 = EDGE_LOOP ( 'NONE', ( #193, #63, #155, #1 ) ) ;
#328 = CARTESIAN_POINT ( 'NONE',  ( 1.326762908760390423E-13, -4.653657836759941941E-15, 38.00000000000000000 ) ) ;
#329 = AXIS2_PLACEMENT_3D ( 'NONE', #217, #124, #246 ) ;
#330 = ADVANCED_FACE ( 'NONE', ( #343 ), #265, .F. ) ;
#331 = DIRECTION ( 'NONE',  ( -3.491481338843133355E-15, 0.0000000000000000000, -1.000000000000000000 ) ) ;
#332 = DIRECTION ( 'NONE',  ( -3.491481338843133355E-15, 1.224646799147353207E-16, -1.000000000000000000 ) ) ;
#333 = CIRCLE ( 'NONE', #116, 1.200000000000000844 ) ;
#334 = PRODUCT_RELATED_PRODUCT_CATEGORY ( 'detail', '', ( #30 ) ) ;
#335 = APPLICATION_CONTEXT ( 'configuration controlled 3d designs of mechanical parts and assemblies' ) ;
#336 = CALENDAR_DATE ( 2021, 21, 9 ) ;
#337 = DATE_AND_TIME ( #207, #202 ) ;
#338 = CALENDAR_DATE ( 2021, 21, 9 ) ;
#339 = APPLICATION_PROTOCOL_DEFINITION ( 'international standard', 'config_control_design', 1994, #335 ) ;
#340 = PRODUCT_DEFINITION_FORMATION_WITH_SPECIFIED_SOURCE ( 'ANY', '', #30, .NOT_KNOWN. ) ;
#341 =( NAMED_UNIT ( * ) PLANE_ANGLE_UNIT ( ) SI_UNIT ( $, .RADIAN. ) );
#342 = ADVANCED_FACE ( 'NONE', ( #367 ), #276, .T. ) ;
#343 = FACE_OUTER_BOUND ( 'NONE', #262, .T. ) ;
#344 = VERTEX_POINT ( 'NONE', #153 ) ;
#345 = EDGE_LOOP ( 'NONE', ( #313, #235, #403 ) ) ;
#346 = LINE ( 'NONE', #221, #34 ) ;
#347 = AXIS2_PLACEMENT_3D ( 'NONE', #385, #29, #383 ) ;
#348 = PLANE ( 'NONE',  #43 ) ;
#349 = CARTESIAN_POINT ( 'NONE',  ( 1.745740669421586399E-15, -6.123233995736835061E-17, 0.5000000000000056621 ) ) ;
#350 = ORIENTED_EDGE ( 'NONE', *, *, #199, .F. ) ;
#351 = DIRECTION ( 'NONE',  ( 4.275831445896958607E-31, 1.000000000000000000, 1.224646799147353207E-16 ) ) ;
#352 = VECTOR ( 'NONE', #299, 1000.000000000000000 ) ;
#353 = CARTESIAN_POINT ( 'NONE',  ( -0.4999999999999993339, 0.0000000000000000000, 1.745740669421564508E-15 ) ) ;
#354 = VERTEX_POINT ( 'NONE', #156 ) ;
#355 = CYLINDRICAL_SURFACE ( 'NONE', #285, 1.499999999999998224 ) ;
#356 = CC_DESIGN_DATE_AND_TIME_ASSIGNMENT ( #264, #18, ( #361 ) ) ;
#357 = ORIENTED_EDGE ( 'NONE', *, *, #228, .T. ) ;
#358 = CONICAL_SURFACE ( 'NONE', #80, 0.5000000000000002220, 0.7853981633974428389 ) ;
#359 = LOCAL_TIME ( 9, 47, 3.000000000000000000, #211 ) ;
#360 = ORIENTED_EDGE ( 'NONE', *, *, #320, .F. ) ;
#361 = PRODUCT_DEFINITION ( 'UNKNOWN', '', #340, #154 ) ;
#362 = ORIENTED_EDGE ( 'NONE', *, *, #50, .F. ) ;
#363 = AXIS2_PLACEMENT_3D ( 'NONE', #26, #309, #236 ) ;
#364 = PERSON_AND_ORGANIZATION_ROLE ( 'design_supplier' ) ;
#365 = PERSON_AND_ORGANIZATION ( #296, #214 ) ;
#366 = CARTESIAN_POINT ( 'NONE',  ( 1.316288464743861212E-13, -4.616918432785521081E-15, 37.69999999999999574 ) ) ;
#367 = FACE_OUTER_BOUND ( 'NONE', #399, .T. ) ;
#368 = VERTEX_POINT ( 'NONE', #398 ) ;
#369 = VERTEX_POINT ( 'NONE', #186 ) ;
#370 = PERSON_AND_ORGANIZATION_ROLE ( 'classification_officer' ) ;
#371 = ORIENTED_EDGE ( 'NONE', *, *, #209, .F. ) ;
#372 = CIRCLE ( 'NONE', #240, 1.499999999999997335 ) ;
#373 = SECURITY_CLASSIFICATION_LEVEL ( 'unclassified' ) ;
#374 = APPROVAL_ROLE ( '' ) ;
#375 = ORIENTED_EDGE ( 'NONE', *, *, #199, .T. ) ;
#376 = DIRECTION ( 'NONE',  ( -3.491481338843133355E-15, 0.0000000000000000000, -1.000000000000000000 ) ) ;
#377 = EDGE_CURVE ( 'NONE', #248, #369, #206, .T. ) ;
#378 = DIRECTION ( 'NONE',  ( 3.491481338843133355E-15, -1.224646799147353207E-16, 1.000000000000000000 ) ) ;
#379 = AXIS2_PLACEMENT_3D ( 'NONE', #281, #376, #188 ) ;
#380 = DIRECTION ( 'NONE',  ( -3.491481338843133355E-15, 0.0000000000000000000, -1.000000000000000000 ) ) ;
#381 = PRODUCT_DEFINITION_SHAPE ( 'NONE', 'NONE',  #361 ) ;
#382 = LOCAL_TIME ( 9, 47, 3.000000000000000000, #52 ) ;
#383 = DIRECTION ( 'NONE',  ( 1.000000000000000000, 0.0000000000000000000, -3.469446951953620500E-15 ) ) ;
#384 = DIRECTION ( 'NONE',  ( 3.491481338843133355E-15, -1.224646799147353207E-16, 1.000000000000000000 ) ) ;
#385 = CARTESIAN_POINT ( 'NONE',  ( 1.652186708908428881E-14, 0.0000000000000000000, 4.732050807568869644 ) ) ;
#386 = EDGE_CURVE ( 'NONE', #300, #294, #189, .T. ) ;
#387 = FACE_OUTER_BOUND ( 'NONE', #198, .T. ) ;
#388 = CARTESIAN_POINT ( 'NONE',  ( 1.745740669421563325E-15, 0.0000000000000000000, 0.4999999999999990563 ) ) ;
#389 = CONICAL_SURFACE ( 'NONE', #347, 1.499999999999997335, 0.5235987755982999259 ) ;
#390 = ORIENTED_EDGE ( 'NONE', *, *, #209, .T. ) ;
#391 = DIRECTION ( 'NONE',  ( -3.491481338843133355E-15, 0.0000000000000000000, -1.000000000000000000 ) ) ;
#392 = ADVANCED_FACE ( 'NONE', ( #271 ), #304, .T. ) ;
#393 = EDGE_LOOP ( 'NONE', ( #277, #314, #204, #131, #165 ) ) ;
#394 = PERSON_AND_ORGANIZATION_ROLE ( 'creator' ) ;
#395 = AXIS2_PLACEMENT_3D ( 'NONE', #111, #332, #136 ) ;
#396 = APPROVAL_PERSON_ORGANIZATION ( #238, #114, #152 ) ;
#397 = CARTESIAN_POINT ( 'NONE',  ( 0.5000000000000011102, 6.123233995736758640E-17, 0.4999999999999972800 ) ) ;
#398 = CARTESIAN_POINT ( 'NONE',  ( 7.407535678173525864E-14, 1.499999999999997335, 4.732050807568869644 ) ) ;
#399 = EDGE_LOOP ( 'NONE', ( #219, #357, #242, #247 ) ) ;
#400 = APPLICATION_PROTOCOL_DEFINITION ( 'international standard', 'config_control_design', 1994, #112 ) ;
#401 = PERSON_AND_ORGANIZATION ( #296, #214 ) ;
#402 = VECTOR ( 'NONE', #331, 1000.000000000000000 ) ;
#403 = ORIENTED_EDGE ( 'NONE', *, *, #386, .T. ) ;
#404 = CC_DESIGN_PERSON_AND_ORGANIZATION_ASSIGNMENT ( #401, #394, ( #340 ) ) ;
#405 = CIRCLE ( 'NONE', #231, 0.4999999999999992784 ) ;
#406 = DIRECTION ( 'NONE',  ( -3.491481338843133355E-15, 1.224646799147353207E-16, -1.000000000000000000 ) ) ;
#407 = APPROVAL ( #49, 'UNSPECIFIED' ) ;
ENDSEC;
END-ISO-10303-21;
