ISO-10303-21;
HEADER;
FILE_DESCRIPTION (( 'STEP AP203' ),
    '1' );
FILE_NAME ('957058.step',
    '2021-11-30T06:45:10',
    ( '' ),
    ( '' ),
    'SwSTEP 2.0',
    'SolidWorks 2019',
    '' );
FILE_SCHEMA (( 'CONFIG_CONTROL_DESIGN' ));
ENDSEC;

DATA;
#1 = EDGE_CURVE ( 'NONE', #259, #259, #274, .T. ) ;
#2 = DIRECTION ( 'NONE',  ( 3.491481338843133355E-15, -1.224646799147353207E-16, 1.000000000000000000 ) ) ;
#3 = CC_DESIGN_APPROVAL ( #114, ( #98 ) ) ;
#4 = FACE_BOUND ( 'NONE', #126, .T. ) ;
#5 = DIRECTION ( 'NONE',  ( 4.275831445896958607E-31, 1.000000000000000000, 1.224646799147353207E-16 ) ) ;
#6 = DIRECTION ( 'NONE',  ( 0.0000000000000000000, 1.000000000000000000, 0.0000000000000000000 ) ) ;
#7 = AXIS2_PLACEMENT_3D ( 'NONE', #249, #159, #161 ) ;
#8 = CIRCLE ( 'NONE', #135, 1.499999999999996669 ) ;
#9 = COORDINATED_UNIVERSAL_TIME_OFFSET ( 1, 0, .AHEAD. ) ;
#10 = PERSON_AND_ORGANIZATION_ROLE ( 'creator' ) ;
#11 = ADVANCED_FACE ( 'NONE', ( #295 ), #254, .F. ) ;
#12 = LOCAL_TIME ( 7, 45, 10.00000000000000000, #56 ) ;
#13 = CALENDAR_DATE ( 2021, 30, 11 ) ;
#14 = ORIENTED_EDGE ( 'NONE', *, *, #1, .F. ) ;
#15 = CARTESIAN_POINT ( 'NONE',  ( 6.284666409917640040E-14, 0.8949999999999973532, 18.00000000000000000 ) ) ;
#16 = EDGE_LOOP ( 'NONE', ( #278 ) ) ;
#17 = FACE_OUTER_BOUND ( 'NONE', #79, .T. ) ;
#18 = CIRCLE ( 'NONE', #158, 0.8949999999999985745 ) ;
#19 = CYLINDRICAL_SURFACE ( 'NONE', #66, 1.499999999999999112 ) ;
#20 = PERSON_AND_ORGANIZATION ( #301, #173 ) ;
#21 = APPLICATION_CONTEXT ( 'configuration controlled 3d designs of mechanical parts and assemblies' ) ;
#22 = PLANE ( 'NONE',  #205 ) ;
#23 = EDGE_LOOP ( 'NONE', ( #89 ) ) ;
#24 = CC_DESIGN_APPROVAL ( #140, ( #258 ) ) ;
#25 = CARTESIAN_POINT ( 'NONE',  ( -1.933023080974222338E-31, 6.780132267805295963E-33, -5.536398145592580313E-17 ) ) ;
#26 = DIRECTION ( 'NONE',  ( -3.491481338843133355E-15, 1.224646799147353207E-16, -1.000000000000000000 ) ) ;
#27 = FACE_BOUND ( 'NONE', #155, .T. ) ;
#28 =( GEOMETRIC_REPRESENTATION_CONTEXT ( 3 ) GLOBAL_UNCERTAINTY_ASSIGNED_CONTEXT ( ( #129 ) ) GLOBAL_UNIT_ASSIGNED_CONTEXT ( ( #199, #268, #125 ) ) REPRESENTATION_CONTEXT ( 'NONE', 'WORKASPACE' ) );
#29 = MANIFOLD_SOLID_BREP ( 'Corps-Déplacer/Copier1[2]', #188 ) ;
#30 = VERTEX_POINT ( 'NONE', #215 ) ;
#31 = CARTESIAN_POINT ( 'NONE',  ( 6.284666409917640040E-14, -2.204364238465235428E-15, 18.00000000000000000 ) ) ;
#32 = CC_DESIGN_PERSON_AND_ORGANIZATION_ASSIGNMENT ( #34, #221, ( #258 ) ) ;
#33 = ADVANCED_FACE ( 'NONE', ( #85 ), #182, .T. ) ;
#34 = PERSON_AND_ORGANIZATION ( #301, #173 ) ;
#35 = DATE_AND_TIME ( #273, #291 ) ;
#36 = DIRECTION ( 'NONE',  ( 3.491481338843133355E-15, -1.224646799147353207E-16, 1.000000000000000000 ) ) ;
#37 = FACE_OUTER_BOUND ( 'NONE', #269, .T. ) ;
#38 = CIRCLE ( 'NONE', #189, 1.200000000000001732 ) ;
#39 = CC_DESIGN_PERSON_AND_ORGANIZATION_ASSIGNMENT ( #196, #10, ( #84 ) ) ;
#40 = DIRECTION ( 'NONE',  ( -4.275831445896958607E-31, -1.000000000000000000, -1.224646799147353207E-16 ) ) ;
#41 = CC_DESIGN_PERSON_AND_ORGANIZATION_ASSIGNMENT ( #103, #171, ( #98 ) ) ;
#42 = DIRECTION ( 'NONE',  ( -3.491481338843133355E-15, 1.224646799147353207E-16, -1.000000000000000000 ) ) ;
#43 = DIRECTION ( 'NONE',  ( 3.491481338843133355E-15, -1.224646799147353207E-16, 1.000000000000000000 ) ) ;
#44 = CONICAL_SURFACE ( 'NONE', #92, 1.048499999999998655, 0.5235987755982929315 ) ;
#45 = VERTEX_POINT ( 'NONE', #115 ) ;
#46 = DIRECTION ( 'NONE',  ( -3.491481338843133355E-15, 1.224646799147353207E-16, -1.000000000000000000 ) ) ;
#47 = CARTESIAN_POINT ( 'NONE',  ( 0.0000000000000000000, 0.9041624327025941099, 0.0000000000000000000 ) ) ;
#48 = VERTEX_POINT ( 'NONE', #123 ) ;
#49 = FACE_OUTER_BOUND ( 'NONE', #156, .T. ) ;
#50 = VERTEX_POINT ( 'NONE', #174 ) ;
#51 = ADVANCED_FACE ( 'NONE', ( #37 ), #22, .F. ) ;
#52 = LOCAL_TIME ( 7, 45, 10.00000000000000000, #124 ) ;
#53 = CARTESIAN_POINT ( 'NONE',  ( 0.0000000000000000000, 0.0000000000000000000, 0.0000000000000000000 ) ) ;
#54 = SHAPE_DEFINITION_REPRESENTATION ( #169, #122 ) ;
#55 = COORDINATED_UNIVERSAL_TIME_OFFSET ( 1, 0, .AHEAD. ) ;
#56 = COORDINATED_UNIVERSAL_TIME_OFFSET ( 1, 0, .AHEAD. ) ;
#57 = CIRCLE ( 'NONE', #87, 0.8949999999999995737 ) ;
#58 = FACE_OUTER_BOUND ( 'NONE', #177, .T. ) ;
#59 = ORIENTED_EDGE ( 'NONE', *, *, #236, .T. ) ;
#60 = ADVANCED_FACE ( 'NONE', ( #17, #108 ), #19, .T. ) ;
#61 = AXIS2_PLACEMENT_3D ( 'NONE', #242, #303, #5 ) ;
#62 = ORIENTED_EDGE ( 'NONE', *, *, #236, .F. ) ;
#63 = FACE_BOUND ( 'NONE', #106, .T. ) ;
#64 = ORIENTED_EDGE ( 'NONE', *, *, #250, .T. ) ;
#65 = CARTESIAN_POINT ( 'NONE',  ( 1.735266225405037467E-13, -6.086494591762345225E-15, 49.70000000000000284 ) ) ;
#66 = AXIS2_PLACEMENT_3D ( 'NONE', #86, #137, #231 ) ;
#67 = AXIS2_PLACEMENT_3D ( 'NONE', #262, #235, #282 ) ;
#68 = CARTESIAN_POINT ( 'NONE',  ( 2.886013015238226509E-14, -1.012277099146737952E-15, 8.265869798961828607 ) ) ;
#69 = DIRECTION ( 'NONE',  ( -3.491481338843133355E-15, 1.224646799147353207E-16, -1.000000000000000000 ) ) ;
#70 = CYLINDRICAL_SURFACE ( 'NONE', #61, 0.8949999999999991296 ) ;
#71 = APPROVAL_PERSON_ORGANIZATION ( #20, #140, #209 ) ;
#72 = DIRECTION ( 'NONE',  ( 0.0000000000000000000, 1.000000000000000000, 0.0000000000000000000 ) ) ;
#73 = APPROVAL_DATE_TIME ( #290, #284 ) ;
#74 = APPROVAL_ROLE ( '' ) ;
#75 = DESIGN_CONTEXT ( 'detailed design', #223, 'design' ) ;
#76 = AXIS2_PLACEMENT_3D ( 'NONE', #165, #213, #166 ) ;
#77 = CARTESIAN_POINT ( 'NONE',  ( 8.728703347107835360E-16, 1.048499999999998655, 0.2500000000000000555 ) ) ;
#78 = APPLICATION_PROTOCOL_DEFINITION ( 'international standard', 'config_control_design', 1994, #223 ) ;
#79 = EDGE_LOOP ( 'NONE', ( #248 ) ) ;
#80 = VERTEX_POINT ( 'NONE', #197 ) ;
#81 = ORIENTED_EDGE ( 'NONE', *, *, #172, .F. ) ;
#82 = CALENDAR_DATE ( 2021, 30, 11 ) ;
#83 = EDGE_LOOP ( 'NONE', ( #232 ) ) ;
#84 = PRODUCT_DEFINITION ( 'UNKNOWN', '', #98, #75 ) ;
#85 = FACE_OUTER_BOUND ( 'NONE', #107, .T. ) ;
#86 = CARTESIAN_POINT ( 'NONE',  ( 0.0000000000000000000, 0.0000000000000000000, 0.0000000000000000000 ) ) ;
#87 = AXIS2_PLACEMENT_3D ( 'NONE', #31, #69, #285 ) ;
#88 = CARTESIAN_POINT ( 'NONE',  ( 0.0000000000000000000, 0.0000000000000000000, 0.0000000000000000000 ) ) ;
#89 = ORIENTED_EDGE ( 'NONE', *, *, #261, .F. ) ;
#90 = DIRECTION ( 'NONE',  ( -3.491481338843133355E-15, 1.224646799147353207E-16, -1.000000000000000000 ) ) ;
#91 = DIRECTION ( 'NONE',  ( 3.673686112326634955E-31, 1.000000000000000000, 1.034050712909399956E-16 ) ) ;
#92 = AXIS2_PLACEMENT_3D ( 'NONE', #217, #263, #144 ) ;
#93 = CARTESIAN_POINT ( 'NONE',  ( 1.745740669421566678E-13, -6.123233995736766085E-15, 50.00000000000000000 ) ) ;
#94 = CC_DESIGN_PERSON_AND_ORGANIZATION_ASSIGNMENT ( #220, #101, ( #219 ) ) ;
#95 = CARTESIAN_POINT ( 'NONE',  ( 8.728703347107831416E-16, -3.061616997868382402E-17, 0.2499999999999999445 ) ) ;
#96 = ADVANCED_FACE ( 'NONE', ( #210, #298 ), #138, .T. ) ;
#97 = FACE_OUTER_BOUND ( 'NONE', #110, .T. ) ;
#98 = PRODUCT_DEFINITION_FORMATION_WITH_SPECIFIED_SOURCE ( 'ANY', '', #219, .NOT_KNOWN. ) ;
#99 = PERSON_AND_ORGANIZATION ( #301, #173 ) ;
#100 = PERSON_AND_ORGANIZATION ( #301, #173 ) ;
#101 = PERSON_AND_ORGANIZATION_ROLE ( 'design_owner' ) ;
#102 = CONICAL_SURFACE ( 'NONE', #222, 0.8949999999999985745, 0.5235987755982915992 ) ;
#103 = PERSON_AND_ORGANIZATION ( #301, #173 ) ;
#104 = ORIENTED_EDGE ( 'NONE', *, *, #207, .T. ) ;
#105 = DATE_AND_TIME ( #82, #157 ) ;
#106 = EDGE_LOOP ( 'NONE', ( #181 ) ) ;
#107 = EDGE_LOOP ( 'NONE', ( #227 ) ) ;
#108 = FACE_OUTER_BOUND ( 'NONE', #266, .T. ) ;
#109 = APPROVAL_STATUS ( 'not_yet_approved' ) ;
#110 = EDGE_LOOP ( 'NONE', ( #59 ) ) ;
#111 = AXIS2_PLACEMENT_3D ( 'NONE', #288, #90, #240 ) ;
#112 = DIRECTION ( 'NONE',  ( 4.275831445896958607E-31, 1.000000000000000000, 1.224646799147353207E-16 ) ) ;
#113 = DIRECTION ( 'NONE',  ( 3.491481338843133355E-15, -1.224646799147353207E-16, 1.000000000000000000 ) ) ;
#114 = APPROVAL ( #147, 'UNSPECIFIED' ) ;
#115 = CARTESIAN_POINT ( 'NONE',  ( 6.405924284287273902E-14, 0.9253844939755766497, 18.34729635533384240 ) ) ;
#116 = ADVANCED_FACE ( 'NONE', ( #281, #63 ), #162, .T. ) ;
#117 = ADVANCED_FACE ( 'NONE', ( #300 ), #234, .F. ) ;
#118 = CARTESIAN_POINT ( 'NONE',  ( 2.793185071074506684E-14, 1.048499999999998655, 8.000000000000000000 ) ) ;
#119 = CIRCLE ( 'NONE', #111, 1.048499999999999766 ) ;
#120 = CARTESIAN_POINT ( 'NONE',  ( 7.543730482881088927E-14, -2.645984467026162847E-15, 21.60610282792067594 ) ) ;
#121 = FACE_BOUND ( 'NONE', #255, .T. ) ;
#122 = ADVANCED_BREP_SHAPE_REPRESENTATION ( '957058', ( #226, #29, #228 ), #28 ) ;
#123 = CARTESIAN_POINT ( 'NONE',  ( 2.886013015238226509E-14, 0.8949999999999975753, 8.265869798961828607 ) ) ;
#124 = COORDINATED_UNIVERSAL_TIME_OFFSET ( 1, 0, .AHEAD. ) ;
#125 =( NAMED_UNIT ( * ) SI_UNIT ( $, .STERADIAN. ) SOLID_ANGLE_UNIT ( ) );
#126 = EDGE_LOOP ( 'NONE', ( #148 ) ) ;
#127 = APPROVAL_ROLE ( '' ) ;
#128 = ADVANCED_FACE ( 'NONE', ( #58, #4 ), #102, .T. ) ;
#129 = UNCERTAINTY_MEASURE_WITH_UNIT (LENGTH_MEASURE( 1.000000000000000082E-05 ), #199, 'distance_accuracy_value', 'NONE');
#130 = PERSON_AND_ORGANIZATION_ROLE ( 'design_supplier' ) ;
#131 = APPROVAL_DATE_TIME ( #105, #140 ) ;
#132 = DATE_TIME_ROLE ( 'classification_date' ) ;
#133 = EDGE_LOOP ( 'NONE', ( #230 ) ) ;
#134 = EDGE_LOOP ( 'NONE', ( #271 ) ) ;
#135 = AXIS2_PLACEMENT_3D ( 'NONE', #120, #168, #141 ) ;
#136 = DIRECTION ( 'NONE',  ( -4.275831445896958607E-31, -1.000000000000000000, -1.224646799147353207E-16 ) ) ;
#137 = DIRECTION ( 'NONE',  ( -3.491481338843133355E-15, 1.224646799147353207E-16, -1.000000000000000000 ) ) ;
#138 = CYLINDRICAL_SURFACE ( 'NONE', #238, 1.048499999999999099 ) ;
#139 = DIRECTION ( 'NONE',  ( 4.275831445896959482E-31, 1.000000000000000000, 1.224646799147353207E-16 ) ) ;
#140 = APPROVAL ( #109, 'UNSPECIFIED' ) ;
#141 = DIRECTION ( 'NONE',  ( 0.0000000000000000000, 1.000000000000000000, 0.0000000000000000000 ) ) ;
#142 = EDGE_CURVE ( 'NONE', #283, #283, #119, .T. ) ;
#143 = CARTESIAN_POINT ( 'NONE',  ( 7.543730482881088927E-14, -2.645984467026162847E-15, 21.60610282792067594 ) ) ;
#144 = DIRECTION ( 'NONE',  ( -3.673686112326634955E-31, -1.000000000000000000, -1.034050712909399956E-16 ) ) ;
#145 = VERTEX_POINT ( 'NONE', #77 ) ;
#146 = FACE_OUTER_BOUND ( 'NONE', #16, .T. ) ;
#147 = APPROVAL_STATUS ( 'not_yet_approved' ) ;
#148 = ORIENTED_EDGE ( 'NONE', *, *, #198, .T. ) ;
#149 = AXIS2_PLACEMENT_3D ( 'NONE', #65, #237, #241 ) ;
#150 = DATE_AND_TIME ( #13, #12 ) ;
#151 = ADVANCED_FACE ( 'NONE', ( #216, #97 ), #70, .T. ) ;
#152 = CC_DESIGN_DATE_AND_TIME_ASSIGNMENT ( #297, #132, ( #258 ) ) ;
#153 = MECHANICAL_CONTEXT ( 'NONE', #21, 'mechanical' ) ;
#154 = APPROVAL_PERSON_ORGANIZATION ( #100, #114, #74 ) ;
#155 = EDGE_LOOP ( 'NONE', ( #14 ) ) ;
#156 = EDGE_LOOP ( 'NONE', ( #62 ) ) ;
#157 = LOCAL_TIME ( 7, 45, 10.00000000000000000, #55 ) ;
#158 = AXIS2_PLACEMENT_3D ( 'NONE', #260, #46, #72 ) ;
#159 = DIRECTION ( 'NONE',  ( -3.491481338843133355E-15, 1.224646799147353207E-16, -1.000000000000000000 ) ) ;
#160 = CARTESIAN_POINT ( 'NONE',  ( 1.745740669421566678E-13, -6.123233995736766085E-15, 50.00000000000000000 ) ) ;
#161 = DIRECTION ( 'NONE',  ( 4.275831445896958607E-31, 1.000000000000000000, 1.224646799147353207E-16 ) ) ;
#162 = CONICAL_SURFACE ( 'NONE', #167, 1.200000000000001732, 0.7853981633974453924 ) ;
#163 = DIRECTION ( 'NONE',  ( -3.491481338843133355E-15, 1.224646799147353207E-16, -1.000000000000000000 ) ) ;
#164 = DIRECTION ( 'NONE',  ( -3.491481338843133355E-15, 1.224646799147353207E-16, -1.000000000000000000 ) ) ;
#165 = CARTESIAN_POINT ( 'NONE',  ( 6.405924284287273902E-14, -2.246895775456748746E-15, 18.34729635533384240 ) ) ;
#166 = DIRECTION ( 'NONE',  ( 0.0000000000000000000, 1.000000000000000000, 0.0000000000000000000 ) ) ;
#167 = AXIS2_PLACEMENT_3D ( 'NONE', #160, #42, #211 ) ;
#168 = DIRECTION ( 'NONE',  ( -3.491481338843133355E-15, 1.224646799147353207E-16, -1.000000000000000000 ) ) ;
#169 = PRODUCT_DEFINITION_SHAPE ( 'NONE', 'NONE',  #84 ) ;
#170 = CALENDAR_DATE ( 2021, 30, 11 ) ;
#171 = PERSON_AND_ORGANIZATION_ROLE ( 'creator' ) ;
#172 = EDGE_CURVE ( 'NONE', #45, #45, #184, .T. ) ;
#173 = ORGANIZATION ( 'UNSPECIFIED', 'UNSPECIFIED', '' ) ;
#174 = CARTESIAN_POINT ( 'NONE',  ( 1.745740669421566678E-13, 1.199999999999995515, 50.00000000000000000 ) ) ;
#175 = SECURITY_CLASSIFICATION_LEVEL ( 'unclassified' ) ;
#176 = VERTEX_POINT ( 'NONE', #15 ) ;
#177 = EDGE_LOOP ( 'NONE', ( #212 ) ) ;
#178 = AXIS2_PLACEMENT_3D ( 'NONE', #206, #36, #40 ) ;
#179 = CC_DESIGN_SECURITY_CLASSIFICATION ( #258, ( #98 ) ) ;
#180 = DIRECTION ( 'NONE',  ( -4.275831445896958607E-31, -1.000000000000000000, -1.224646799147353207E-16 ) ) ;
#181 = ORIENTED_EDGE ( 'NONE', *, *, #261, .T. ) ;
#182 = PLANE ( 'NONE',  #178 ) ;
#183 = EDGE_CURVE ( 'NONE', #30, #30, #287, .T. ) ;
#184 = CIRCLE ( 'NONE', #76, 0.9253844939755788701 ) ;
#185 = DIRECTION ( 'NONE',  ( -3.491481338843133355E-15, 1.224646799147353207E-16, -1.000000000000000000 ) ) ;
#186 = CARTESIAN_POINT ( 'NONE',  ( 2.793185071074506684E-14, 7.862490660604770090E-33, 8.000000000000000000 ) ) ;
#187 = FACE_OUTER_BOUND ( 'NONE', #134, .T. ) ;
#188 = CLOSED_SHELL ( 'NONE', ( #117, #292, #96, #33 ) ) ;
#189 = AXIS2_PLACEMENT_3D ( 'NONE', #93, #26, #6 ) ;
#190 = FACE_OUTER_BOUND ( 'NONE', #202, .T. ) ;
#191 = DIRECTION ( 'NONE',  ( 0.0000000000000000000, 1.000000000000000000, 0.0000000000000000000 ) ) ;
#192 = CARTESIAN_POINT ( 'NONE',  ( 2.793185071074506684E-14, -9.797174393178825657E-16, 8.000000000000000000 ) ) ;
#193 = CLOSED_SHELL ( 'NONE', ( #51, #128, #151, #251, #239, #60, #116, #11 ) ) ;
#194 = DIRECTION ( 'NONE',  ( 0.0000000000000000000, -1.000000000000000000, 0.0000000000000000000 ) ) ;
#195 = AXIS2_PLACEMENT_3D ( 'NONE', #95, #286, #91 ) ;
#196 = PERSON_AND_ORGANIZATION ( #301, #173 ) ;
#197 = CARTESIAN_POINT ( 'NONE',  ( 7.543730482881088927E-14, 1.499999999999994005, 21.60610282792067594 ) ) ;
#198 = EDGE_CURVE ( 'NONE', #48, #48, #18, .T. ) ;
#199 =( LENGTH_UNIT ( ) NAMED_UNIT ( * ) SI_UNIT ( .MILLI., .METRE. ) );
#200 = AXIS2_PLACEMENT_3D ( 'NONE', #25, #113, #180 ) ;
#201 = PERSON_AND_ORGANIZATION ( #301, #173 ) ;
#202 = EDGE_LOOP ( 'NONE', ( #104 ) ) ;
#203 = APPLICATION_PROTOCOL_DEFINITION ( 'international standard', 'config_control_design', 1994, #21 ) ;
#204 = EDGE_LOOP ( 'NONE', ( #296 ) ) ;
#205 = AXIS2_PLACEMENT_3D ( 'NONE', #186, #43, #136 ) ;
#206 = CARTESIAN_POINT ( 'NONE',  ( 2.793185071074506684E-14, 7.862490660604770090E-33, 8.000000000000000000 ) ) ;
#207 = EDGE_CURVE ( 'NONE', #145, #145, #246, .T. ) ;
#208 = EDGE_LOOP ( 'NONE', ( #276 ) ) ;
#209 = APPROVAL_ROLE ( '' ) ;
#210 = FACE_OUTER_BOUND ( 'NONE', #133, .T. ) ;
#211 = DIRECTION ( 'NONE',  ( 0.0000000000000000000, 1.000000000000000000, 0.0000000000000000000 ) ) ;
#212 = ORIENTED_EDGE ( 'NONE', *, *, #250, .F. ) ;
#213 = DIRECTION ( 'NONE',  ( -3.491481338843133355E-15, 1.224646799147353207E-16, -1.000000000000000000 ) ) ;
#214 = TOROIDAL_SURFACE ( 'NONE', #67, 2.894999999999999574, 2.000000000000000888 ) ;
#215 = CARTESIAN_POINT ( 'NONE',  ( 1.735266225405037467E-13, 1.499999999999995559, 49.70000000000000284 ) ) ;
#216 = FACE_OUTER_BOUND ( 'NONE', #204, .T. ) ;
#217 = CARTESIAN_POINT ( 'NONE',  ( 8.728703347107831416E-16, -3.061616997868382402E-17, 0.2499999999999999445 ) ) ;
#218 = APPROVAL_STATUS ( 'not_yet_approved' ) ;
#219 = PRODUCT ( '957058', '957058', '', ( #153 ) ) ;
#220 = PERSON_AND_ORGANIZATION ( #301, #173 ) ;
#221 = PERSON_AND_ORGANIZATION_ROLE ( 'classification_officer' ) ;
#222 = AXIS2_PLACEMENT_3D ( 'NONE', #68, #164, #191 ) ;
#223 = APPLICATION_CONTEXT ( 'configuration controlled 3d designs of mechanical parts and assemblies' ) ;
#224 = CALENDAR_DATE ( 2021, 30, 11 ) ;
#225 = ORIENTED_EDGE ( 'NONE', *, *, #183, .T. ) ;
#226 = MANIFOLD_SOLID_BREP ( 'Corps-Déplacer/Copier1[1]', #193 ) ;
#227 = ORIENTED_EDGE ( 'NONE', *, *, #142, .F. ) ;
#228 = AXIS2_PLACEMENT_3D ( 'NONE', #53, #265, #244 ) ;
#229 = EDGE_CURVE ( 'NONE', #80, #80, #8, .T. ) ;
#230 = ORIENTED_EDGE ( 'NONE', *, *, #207, .F. ) ;
#231 = DIRECTION ( 'NONE',  ( 4.275831445896958607E-31, 1.000000000000000000, 1.224646799147353454E-16 ) ) ;
#232 = ORIENTED_EDGE ( 'NONE', *, *, #142, .T. ) ;
#233 = APPROVAL_PERSON_ORGANIZATION ( #99, #284, #127 ) ;
#234 = PLANE ( 'NONE',  #200 ) ;
#235 = DIRECTION ( 'NONE',  ( -3.491481338843133355E-15, 1.224646799147353207E-16, -1.000000000000000000 ) ) ;
#236 = EDGE_CURVE ( 'NONE', #176, #176, #57, .T. ) ;
#237 = DIRECTION ( 'NONE',  ( -3.491481338843133355E-15, 1.224646799147353207E-16, -1.000000000000000000 ) ) ;
#238 = AXIS2_PLACEMENT_3D ( 'NONE', #88, #185, #139 ) ;
#239 = ADVANCED_FACE ( 'NONE', ( #121, #146 ), #294, .T. ) ;
#240 = DIRECTION ( 'NONE',  ( 0.0000000000000000000, 1.000000000000000000, 0.0000000000000000000 ) ) ;
#241 = DIRECTION ( 'NONE',  ( 0.0000000000000000000, 1.000000000000000000, 0.0000000000000000000 ) ) ;
#242 = CARTESIAN_POINT ( 'NONE',  ( 0.0000000000000000000, 0.0000000000000000000, 0.0000000000000000000 ) ) ;
#243 = APPROVAL_DATE_TIME ( #150, #114 ) ;
#244 = DIRECTION ( 'NONE',  ( 1.000000000000000000, 0.0000000000000000000, 0.0000000000000000000 ) ) ;
#245 = DATE_TIME_ROLE ( 'creation_date' ) ;
#246 = CIRCLE ( 'NONE', #195, 1.048499999999998655 ) ;
#247 = COORDINATED_UNIVERSAL_TIME_OFFSET ( 1, 0, .AHEAD. ) ;
#248 = ORIENTED_EDGE ( 'NONE', *, *, #229, .F. ) ;
#249 = CARTESIAN_POINT ( 'NONE',  ( -3.866046161948444676E-31, 1.356026453561059193E-32, -1.107279629118516063E-16 ) ) ;
#250 = EDGE_CURVE ( 'NONE', #270, #270, #279, .T. ) ;
#251 = ADVANCED_FACE ( 'NONE', ( #49, #187 ), #214, .F. ) ;
#252 = ORIENTED_EDGE ( 'NONE', *, *, #1, .T. ) ;
#253 = LOCAL_TIME ( 7, 45, 10.00000000000000000, #247 ) ;
#254 = PLANE ( 'NONE',  #257 ) ;
#255 = EDGE_LOOP ( 'NONE', ( #81 ) ) ;
#256 = EDGE_LOOP ( 'NONE', ( #252 ) ) ;
#257 = AXIS2_PLACEMENT_3D ( 'NONE', #280, #277, #112 ) ;
#258 = SECURITY_CLASSIFICATION ( '', '', #175 ) ;
#259 = VERTEX_POINT ( 'NONE', #47 ) ;
#260 = CARTESIAN_POINT ( 'NONE',  ( 2.886013015238226509E-14, -1.012277099146737952E-15, 8.265869798961828607 ) ) ;
#261 = EDGE_CURVE ( 'NONE', #50, #50, #38, .T. ) ;
#262 = CARTESIAN_POINT ( 'NONE',  ( 6.284666409917640040E-14, -2.168404344971008868E-15, 18.00000000000000000 ) ) ;
#263 = DIRECTION ( 'NONE',  ( 3.491481338843133355E-15, -1.224646799147353207E-16, 1.000000000000000000 ) ) ;
#264 = DIRECTION ( 'NONE',  ( 0.0000000000000000000, 1.000000000000000000, 0.0000000000000000000 ) ) ;
#265 = DIRECTION ( 'NONE',  ( 0.0000000000000000000, 0.0000000000000000000, 1.000000000000000000 ) ) ;
#266 = EDGE_LOOP ( 'NONE', ( #225 ) ) ;
#267 = AXIS2_PLACEMENT_3D ( 'NONE', #192, #163, #264 ) ;
#268 =( NAMED_UNIT ( * ) PLANE_ANGLE_UNIT ( ) SI_UNIT ( $, .RADIAN. ) );
#269 = EDGE_LOOP ( 'NONE', ( #64 ) ) ;
#270 = VERTEX_POINT ( 'NONE', #289 ) ;
#271 = ORIENTED_EDGE ( 'NONE', *, *, #172, .T. ) ;
#272 = PRODUCT_RELATED_PRODUCT_CATEGORY ( 'detail', '', ( #219 ) ) ;
#273 = CALENDAR_DATE ( 2021, 30, 11 ) ;
#274 = CIRCLE ( 'NONE', #7, 0.9041624327025941099 ) ;
#275 = CC_DESIGN_APPROVAL ( #284, ( #84 ) ) ;
#276 = ORIENTED_EDGE ( 'NONE', *, *, #183, .F. ) ;
#277 = DIRECTION ( 'NONE',  ( -3.491481338843133355E-15, 1.224646799147353207E-16, -1.000000000000000000 ) ) ;
#278 = ORIENTED_EDGE ( 'NONE', *, *, #229, .T. ) ;
#279 = CIRCLE ( 'NONE', #267, 1.048499999999999766 ) ;
#280 = CARTESIAN_POINT ( 'NONE',  ( 1.745740669421566678E-13, 8.998558695971067645E-33, 50.00000000000000000 ) ) ;
#281 = FACE_OUTER_BOUND ( 'NONE', #208, .T. ) ;
#282 = DIRECTION ( 'NONE',  ( 4.275831445896958607E-31, 1.000000000000000000, 1.224646799147353207E-16 ) ) ;
#283 = VERTEX_POINT ( 'NONE', #118 ) ;
#284 = APPROVAL ( #218, 'UNSPECIFIED' ) ;
#285 = DIRECTION ( 'NONE',  ( 0.0000000000000000000, 1.000000000000000000, 0.0000000000000000000 ) ) ;
#286 = DIRECTION ( 'NONE',  ( -3.491481338843133355E-15, 1.224646799147353207E-16, -1.000000000000000000 ) ) ;
#287 = CIRCLE ( 'NONE', #149, 1.500000000000001554 ) ;
#288 = CARTESIAN_POINT ( 'NONE',  ( 2.793185071074506684E-14, -9.797174393178825657E-16, 8.000000000000000000 ) ) ;
#289 = CARTESIAN_POINT ( 'NONE',  ( 2.793185071074506684E-14, 1.048499999999998655, 8.000000000000000000 ) ) ;
#290 = DATE_AND_TIME ( #170, #52 ) ;
#291 = LOCAL_TIME ( 7, 45, 10.00000000000000000, #9 ) ;
#292 = ADVANCED_FACE ( 'NONE', ( #27, #190 ), #44, .T. ) ;
#293 = CC_DESIGN_PERSON_AND_ORGANIZATION_ASSIGNMENT ( #201, #130, ( #98 ) ) ;
#294 = CONICAL_SURFACE ( 'NONE', #299, 1.499999999999996669, 0.1745329251994265085 ) ;
#295 = FACE_OUTER_BOUND ( 'NONE', #23, .T. ) ;
#296 = ORIENTED_EDGE ( 'NONE', *, *, #198, .F. ) ;
#297 = DATE_AND_TIME ( #224, #253 ) ;
#298 = FACE_OUTER_BOUND ( 'NONE', #83, .T. ) ;
#299 = AXIS2_PLACEMENT_3D ( 'NONE', #143, #2, #194 ) ;
#300 = FACE_OUTER_BOUND ( 'NONE', #256, .T. ) ;
#301 = PERSON ( 'UNSPECIFIED', 'UNSPECIFIED', 'UNSPECIFIED', ('UNSPECIFIED'), ('UNSPECIFIED'), ('UNSPECIFIED') ) ;
#302 = CC_DESIGN_DATE_AND_TIME_ASSIGNMENT ( #35, #245, ( #84 ) ) ;
#303 = DIRECTION ( 'NONE',  ( -3.491481338843133355E-15, 1.224646799147353207E-16, -1.000000000000000000 ) ) ;
ENDSEC;
END-ISO-10303-21;
