ISO-10303-21;
HEADER;
FILE_DESCRIPTION (( 'STEP AP203' ),
    '1' );
FILE_NAME ('957045.step',
    '2021-10-08T05:54:12',
    ( '' ),
    ( '' ),
    'SwSTEP 2.0',
    'SolidWorks 2019',
    '' );
FILE_SCHEMA (( 'CONFIG_CONTROL_DESIGN' ));
ENDSEC;

DATA;
#1 = CC_DESIGN_PERSON_AND_ORGANIZATION_ASSIGNMENT ( #33, #112, ( #47 ) ) ;
#2 =( GEOMETRIC_REPRESENTATION_CONTEXT ( 3 ) GLOBAL_UNCERTAINTY_ASSIGNED_CONTEXT ( ( #40 ) ) GLOBAL_UNIT_ASSIGNED_CONTEXT ( ( #29, #91, #17 ) ) REPRESENTATION_CONTEXT ( 'NONE', 'WORKASPACE' ) );
#3 = CARTESIAN_POINT ( 'NONE',  ( 3.142333204958820020E-14, -1.102182119232617714E-15, 9.000000000000000000 ) ) ;
#4 = CARTESIAN_POINT ( 'NONE',  ( 1.047444401652940007E-13, 4.874219293650981803E-33, 30.00000000000000000 ) ) ;
#5 = EDGE_LOOP ( 'NONE', ( #146 ) ) ;
#6 = CARTESIAN_POINT ( 'NONE',  ( 3.142333204958820020E-14, 0.4849999999999993205, 9.000000000000000000 ) ) ;
#7 = AXIS2_PLACEMENT_3D ( 'NONE', #66, #8, #181 ) ;
#8 = DIRECTION ( 'NONE',  ( -3.491481338843133355E-15, 1.224646799147353207E-16, -1.000000000000000000 ) ) ;
#9 = PERSON ( 'UNSPECIFIED', 'UNSPECIFIED', 'UNSPECIFIED', ('UNSPECIFIED'), ('UNSPECIFIED'), ('UNSPECIFIED') ) ;
#10 = CYLINDRICAL_SURFACE ( 'NONE', #7, 0.7499999999999986677 ) ;
#11 = EDGE_CURVE ( 'NONE', #153, #153, #125, .T. ) ;
#12 = DATE_AND_TIME ( #123, #158 ) ;
#13 = FACE_OUTER_BOUND ( 'NONE', #193, .T. ) ;
#14 = CIRCLE ( 'NONE', #35, 0.7499999999999998890 ) ;
#15 = CARTESIAN_POINT ( 'NONE',  ( 1.043952920314096810E-13, 0.7499999999999962252, 29.89999999999999858 ) ) ;
#16 = PERSON_AND_ORGANIZATION_ROLE ( 'design_supplier' ) ;
#17 =( NAMED_UNIT ( * ) SI_UNIT ( $, .STERADIAN. ) SOLID_ANGLE_UNIT ( ) );
#18 = PERSON_AND_ORGANIZATION_ROLE ( 'design_owner' ) ;
#19 = ORGANIZATION ( 'UNSPECIFIED', 'UNSPECIFIED', '' ) ;
#20 = APPROVAL_ROLE ( '' ) ;
#21 = AXIS2_PLACEMENT_3D ( 'NONE', #218, #25, #84 ) ;
#22 = EDGE_LOOP ( 'NONE', ( #197 ) ) ;
#23 = ORIENTED_EDGE ( 'NONE', *, *, #164, .F. ) ;
#24 = ORIENTED_EDGE ( 'NONE', *, *, #11, .T. ) ;
#25 = DIRECTION ( 'NONE',  ( -3.491481338843133355E-15, 1.224646799147353207E-16, -1.000000000000000000 ) ) ;
#26 = CARTESIAN_POINT ( 'NONE',  ( 3.302589916381525225E-14, -1.158392606885037958E-15, 9.458993464005752472 ) ) ;
#27 = CARTESIAN_POINT ( 'NONE',  ( 3.142333204958820020E-14, 3.636917472954992246E-33, 9.000000000000000000 ) ) ;
#28 = VERTEX_POINT ( 'NONE', #154 ) ;
#29 =( LENGTH_UNIT ( ) NAMED_UNIT ( * ) SI_UNIT ( .MILLI., .METRE. ) );
#30 = APPROVAL_DATE_TIME ( #36, #160 ) ;
#31 = ADVANCED_FACE ( 'NONE', ( #41 ), #116, .F. ) ;
#32 = MECHANICAL_CONTEXT ( 'NONE', #88, 'mechanical' ) ;
#33 = PERSON_AND_ORGANIZATION ( #9, #19 ) ;
#34 = APPLICATION_PROTOCOL_DEFINITION ( 'international standard', 'config_control_design', 1994, #175 ) ;
#35 = AXIS2_PLACEMENT_3D ( 'NONE', #118, #202, #136 ) ;
#36 = DATE_AND_TIME ( #187, #172 ) ;
#37 = EDGE_LOOP ( 'NONE', ( #101 ) ) ;
#38 = CIRCLE ( 'NONE', #192, 0.4850000000000004308 ) ;
#39 = EDGE_CURVE ( 'NONE', #67, #67, #188, .T. ) ;
#40 = UNCERTAINTY_MEASURE_WITH_UNIT (LENGTH_MEASURE( 1.000000000000000082E-05 ), #29, 'distance_accuracy_value', 'NONE');
#41 = FACE_OUTER_BOUND ( 'NONE', #149, .T. ) ;
#42 = EDGE_LOOP ( 'NONE', ( #62 ) ) ;
#43 = ADVANCED_FACE ( 'NONE', ( #212, #64 ), #132, .T. ) ;
#44 = DIRECTION ( 'NONE',  ( -3.970989576056163748E-31, -1.000000000000000000, -1.117734198438666434E-16 ) ) ;
#45 = DIRECTION ( 'NONE',  ( 0.0000000000000000000, 1.000000000000000000, 0.0000000000000000000 ) ) ;
#46 = AXIS2_PLACEMENT_3D ( 'NONE', #3, #180, #196 ) ;
#47 = PRODUCT_DEFINITION ( 'UNKNOWN', '', #119, #59 ) ;
#48 = CARTESIAN_POINT ( 'NONE',  ( 3.302589916381525225E-14, 0.7499999999999963363, 9.458993464005752472 ) ) ;
#49 = CLOSED_SHELL ( 'NONE', ( #99, #129, #58, #97, #31 ) ) ;
#50 = FACE_OUTER_BOUND ( 'NONE', #22, .T. ) ;
#51 = FACE_BOUND ( 'NONE', #57, .T. ) ;
#52 = APPROVAL_PERSON_ORGANIZATION ( #157, #160, #128 ) ;
#53 = COORDINATED_UNIVERSAL_TIME_OFFSET ( 1, 0, .AHEAD. ) ;
#54 = DATE_TIME_ROLE ( 'classification_date' ) ;
#55 = EDGE_CURVE ( 'NONE', #134, #134, #14, .T. ) ;
#56 = DIRECTION ( 'NONE',  ( 1.000000000000000000, 0.0000000000000000000, 0.0000000000000000000 ) ) ;
#57 = EDGE_LOOP ( 'NONE', ( #105 ) ) ;
#58 = ADVANCED_FACE ( 'NONE', ( #198, #111 ), #10, .T. ) ;
#59 = DESIGN_CONTEXT ( 'detailed design', #175, 'design' ) ;
#60 = DIRECTION ( 'NONE',  ( -3.491481338843133355E-15, 1.224646799147353207E-16, -1.000000000000000000 ) ) ;
#61 = CIRCLE ( 'NONE', #21, 0.6500000000000000222 ) ;
#62 = ORIENTED_EDGE ( 'NONE', *, *, #216, .T. ) ;
#63 = CC_DESIGN_PERSON_AND_ORGANIZATION_ASSIGNMENT ( #144, #16, ( #119 ) ) ;
#64 = FACE_OUTER_BOUND ( 'NONE', #102, .T. ) ;
#65 = MANIFOLD_SOLID_BREP ( 'Corps-Déplacer/Copier1[2]', #108 ) ;
#66 = CARTESIAN_POINT ( 'NONE',  ( 0.0000000000000000000, 0.0000000000000000000, 0.0000000000000000000 ) ) ;
#67 = VERTEX_POINT ( 'NONE', #48 ) ;
#68 = CC_DESIGN_PERSON_AND_ORGANIZATION_ASSIGNMENT ( #208, #18, ( #131 ) ) ;
#69 = DIRECTION ( 'NONE',  ( -3.491481338843133355E-15, 1.224646799147353207E-16, -1.000000000000000000 ) ) ;
#70 = SECURITY_CLASSIFICATION ( '', '', #161 ) ;
#71 = APPROVAL ( #222, 'UNSPECIFIED' ) ;
#72 = FACE_BOUND ( 'NONE', #42, .T. ) ;
#73 = CALENDAR_DATE ( 2021, 8, 10 ) ;
#74 = AXIS2_PLACEMENT_3D ( 'NONE', #27, #217, #124 ) ;
#75 = COORDINATED_UNIVERSAL_TIME_OFFSET ( 1, 0, .AHEAD. ) ;
#76 = APPROVAL_DATE_TIME ( #138, #71 ) ;
#77 = APPROVAL_ROLE ( '' ) ;
#78 = APPROVAL_PERSON_ORGANIZATION ( #190, #185, #77 ) ;
#79 = DIRECTION ( 'NONE',  ( 4.275831445896958607E-31, 1.000000000000000000, 1.224646799147353207E-16 ) ) ;
#80 = EDGE_LOOP ( 'NONE', ( #213 ) ) ;
#81 = AXIS2_PLACEMENT_3D ( 'NONE', #137, #203, #44 ) ;
#82 = DIRECTION ( 'NONE',  ( -3.491481338843133355E-15, 1.224646799147353207E-16, -1.000000000000000000 ) ) ;
#83 = CARTESIAN_POINT ( 'NONE',  ( 0.0000000000000000000, 0.0000000000000000000, 0.0000000000000000000 ) ) ;
#84 = DIRECTION ( 'NONE',  ( 0.0000000000000000000, 1.000000000000000000, 0.0000000000000000000 ) ) ;
#85 = CC_DESIGN_APPROVAL ( #160, ( #47 ) ) ;
#86 = PLANE ( 'NONE',  #74 ) ;
#87 = VERTEX_POINT ( 'NONE', #121 ) ;
#88 = APPLICATION_CONTEXT ( 'configuration controlled 3d designs of mechanical parts and assemblies' ) ;
#89 = DIRECTION ( 'NONE',  ( 3.491481338843133355E-15, -1.224646799147353207E-16, 1.000000000000000000 ) ) ;
#90 = EDGE_CURVE ( 'NONE', #87, #87, #38, .T. ) ;
#91 =( NAMED_UNIT ( * ) PLANE_ANGLE_UNIT ( ) SI_UNIT ( $, .RADIAN. ) );
#92 = SHAPE_DEFINITION_REPRESENTATION ( #151, #194 ) ;
#93 = PERSON_AND_ORGANIZATION_ROLE ( 'classification_officer' ) ;
#94 = COORDINATED_UNIVERSAL_TIME_OFFSET ( 1, 0, .AHEAD. ) ;
#95 = CC_DESIGN_SECURITY_CLASSIFICATION ( #70, ( #119 ) ) ;
#96 = DATE_AND_TIME ( #142, #210 ) ;
#97 = ADVANCED_FACE ( 'NONE', ( #50, #72 ), #195, .T. ) ;
#98 = PERSON_AND_ORGANIZATION ( #9, #19 ) ;
#99 = ADVANCED_FACE ( 'NONE', ( #183 ), #106, .F. ) ;
#100 = ORIENTED_EDGE ( 'NONE', *, *, #164, .T. ) ;
#101 = ORIENTED_EDGE ( 'NONE', *, *, #39, .F. ) ;
#102 = EDGE_LOOP ( 'NONE', ( #24 ) ) ;
#103 = EDGE_LOOP ( 'NONE', ( #23 ) ) ;
#104 = AXIS2_PLACEMENT_3D ( 'NONE', #189, #176, #56 ) ;
#105 = ORIENTED_EDGE ( 'NONE', *, *, #90, .F. ) ;
#106 = PLANE ( 'NONE',  #169 ) ;
#107 = DIRECTION ( 'NONE',  ( 0.0000000000000000000, -1.000000000000000000, 0.0000000000000000000 ) ) ;
#108 = CLOSED_SHELL ( 'NONE', ( #120, #43, #147 ) ) ;
#109 = CONICAL_SURFACE ( 'NONE', #152, 0.7499999999999975575, 0.5235987755982931535 ) ;
#110 = DIRECTION ( 'NONE',  ( 3.970989576056163748E-31, 1.000000000000000000, 1.117734198438666434E-16 ) ) ;
#111 = FACE_OUTER_BOUND ( 'NONE', #80, .T. ) ;
#112 = PERSON_AND_ORGANIZATION_ROLE ( 'creator' ) ;
#113 = APPROVAL_STATUS ( 'not_yet_approved' ) ;
#114 = CC_DESIGN_APPROVAL ( #71, ( #119 ) ) ;
#115 = ORIENTED_EDGE ( 'NONE', *, *, #90, .T. ) ;
#116 = PLANE ( 'NONE',  #200 ) ;
#117 = FACE_OUTER_BOUND ( 'NONE', #163, .T. ) ;
#118 = CARTESIAN_POINT ( 'NONE',  ( 1.043952920314096810E-13, -3.661693929450586610E-15, 29.89999999999999858 ) ) ;
#119 = PRODUCT_DEFINITION_FORMATION_WITH_SPECIFIED_SOURCE ( 'ANY', '', #131, .NOT_KNOWN. ) ;
#120 = ADVANCED_FACE ( 'NONE', ( #13 ), #165, .T. ) ;
#121 = CARTESIAN_POINT ( 'NONE',  ( 3.142333204958820020E-14, 0.4849999999999993205, 9.000000000000000000 ) ) ;
#122 = CARTESIAN_POINT ( 'NONE',  ( 3.142333204958820020E-14, -1.102182119232617714E-15, 9.000000000000000000 ) ) ;
#123 = CALENDAR_DATE ( 2021, 8, 10 ) ;
#124 = DIRECTION ( 'NONE',  ( -4.275831445896958607E-31, -1.000000000000000000, -1.224646799147353207E-16 ) ) ;
#125 = CIRCLE ( 'NONE', #46, 0.4850000000000004308 ) ;
#126 = DATE_AND_TIME ( #143, #148 ) ;
#127 = PRODUCT_RELATED_PRODUCT_CATEGORY ( 'detail', '', ( #131 ) ) ;
#128 = APPROVAL_ROLE ( '' ) ;
#129 = ADVANCED_FACE ( 'NONE', ( #51, #117 ), #109, .T. ) ;
#130 = CIRCLE ( 'NONE', #214, 0.4849999999999991540 ) ;
#131 = PRODUCT ( '957045', '957045', '', ( #32 ) ) ;
#132 = CYLINDRICAL_SURFACE ( 'NONE', #162, 0.4849999999999997646 ) ;
#133 = CARTESIAN_POINT ( 'NONE',  ( 1.047444401652940007E-13, -3.673940397442059178E-15, 30.00000000000000000 ) ) ;
#134 = VERTEX_POINT ( 'NONE', #15 ) ;
#135 = DIRECTION ( 'NONE',  ( 4.275831445896958607E-31, 1.000000000000000000, 1.224646799147353207E-16 ) ) ;
#136 = DIRECTION ( 'NONE',  ( 0.0000000000000000000, 1.000000000000000000, 0.0000000000000000000 ) ) ;
#137 = CARTESIAN_POINT ( 'NONE',  ( 9.776667300630538157E-16, -3.429193271877231927E-17, 0.2800148805569711574 ) ) ;
#138 = DATE_AND_TIME ( #73, #182 ) ;
#139 = MANIFOLD_SOLID_BREP ( 'Corps-Déplacer/Copier1[1]', #49 ) ;
#140 = CC_DESIGN_PERSON_AND_ORGANIZATION_ASSIGNMENT ( #98, #204, ( #119 ) ) ;
#141 = AXIS2_PLACEMENT_3D ( 'NONE', #133, #201, #168 ) ;
#142 = CALENDAR_DATE ( 2021, 8, 10 ) ;
#143 = CALENDAR_DATE ( 2021, 8, 10 ) ;
#144 = PERSON_AND_ORGANIZATION ( #9, #19 ) ;
#145 = AXIS2_PLACEMENT_3D ( 'NONE', #209, #60, #150 ) ;
#146 = ORIENTED_EDGE ( 'NONE', *, *, #11, .F. ) ;
#147 = ADVANCED_FACE ( 'NONE', ( #167 ), #86, .T. ) ;
#148 = LOCAL_TIME ( 7, 54, 12.00000000000000000, #53 ) ;
#149 = EDGE_LOOP ( 'NONE', ( #211 ) ) ;
#150 = DIRECTION ( 'NONE',  ( 0.0000000000000000000, 1.000000000000000000, 0.0000000000000000000 ) ) ;
#151 = PRODUCT_DEFINITION_SHAPE ( 'NONE', 'NONE',  #47 ) ;
#152 = AXIS2_PLACEMENT_3D ( 'NONE', #26, #89, #107 ) ;
#153 = VERTEX_POINT ( 'NONE', #6 ) ;
#154 = CARTESIAN_POINT ( 'NONE',  ( 9.776667300630540129E-16, 0.4849999999999990985, 0.2800148805569712129 ) ) ;
#155 = COORDINATED_UNIVERSAL_TIME_OFFSET ( 1, 0, .AHEAD. ) ;
#156 = CARTESIAN_POINT ( 'NONE',  ( 3.142333204958820020E-14, 3.636917472954992246E-33, 9.000000000000000000 ) ) ;
#157 = PERSON_AND_ORGANIZATION ( #9, #19 ) ;
#158 = LOCAL_TIME ( 7, 54, 12.00000000000000000, #155 ) ;
#159 = PERSON_AND_ORGANIZATION ( #9, #19 ) ;
#160 = APPROVAL ( #113, 'UNSPECIFIED' ) ;
#161 = SECURITY_CLASSIFICATION_LEVEL ( 'unclassified' ) ;
#162 = AXIS2_PLACEMENT_3D ( 'NONE', #83, #199, #135 ) ;
#163 = EDGE_LOOP ( 'NONE', ( #179 ) ) ;
#164 = EDGE_CURVE ( 'NONE', #28, #28, #130, .T. ) ;
#165 = CONICAL_SURFACE ( 'NONE', #81, 0.4849999999999991540, 1.047197551196592746 ) ;
#166 = EDGE_LOOP ( 'NONE', ( #115 ) ) ;
#167 = FACE_OUTER_BOUND ( 'NONE', #5, .T. ) ;
#168 = DIRECTION ( 'NONE',  ( 0.0000000000000000000, 1.000000000000000000, 0.0000000000000000000 ) ) ;
#169 = AXIS2_PLACEMENT_3D ( 'NONE', #156, #215, #171 ) ;
#170 = DIRECTION ( 'NONE',  ( -3.491481338843133355E-15, 1.224646799147353207E-16, -1.000000000000000000 ) ) ;
#171 = DIRECTION ( 'NONE',  ( -4.275831445896958607E-31, -1.000000000000000000, -1.224646799147353207E-16 ) ) ;
#172 = LOCAL_TIME ( 7, 54, 12.00000000000000000, #178 ) ;
#173 = CC_DESIGN_PERSON_AND_ORGANIZATION_ASSIGNMENT ( #206, #93, ( #70 ) ) ;
#174 = DATE_TIME_ROLE ( 'creation_date' ) ;
#175 = APPLICATION_CONTEXT ( 'configuration controlled 3d designs of mechanical parts and assemblies' ) ;
#176 = DIRECTION ( 'NONE',  ( 0.0000000000000000000, 0.0000000000000000000, 1.000000000000000000 ) ) ;
#177 = CC_DESIGN_APPROVAL ( #185, ( #70 ) ) ;
#178 = COORDINATED_UNIVERSAL_TIME_OFFSET ( 1, 0, .AHEAD. ) ;
#179 = ORIENTED_EDGE ( 'NONE', *, *, #39, .T. ) ;
#180 = DIRECTION ( 'NONE',  ( -3.491481338843133355E-15, 1.224646799147353207E-16, -1.000000000000000000 ) ) ;
#181 = DIRECTION ( 'NONE',  ( 4.275831445896959482E-31, 1.000000000000000000, 1.224646799147353207E-16 ) ) ;
#182 = LOCAL_TIME ( 7, 54, 12.00000000000000000, #94 ) ;
#183 = FACE_OUTER_BOUND ( 'NONE', #166, .T. ) ;
#184 = CARTESIAN_POINT ( 'NONE',  ( 9.776667300630538157E-16, -3.429193271877231927E-17, 0.2800148805569711574 ) ) ;
#185 = APPROVAL ( #223, 'UNSPECIFIED' ) ;
#186 = APPROVAL_DATE_TIME ( #12, #185 ) ;
#187 = CALENDAR_DATE ( 2021, 8, 10 ) ;
#188 = CIRCLE ( 'NONE', #145, 0.7499999999999975575 ) ;
#189 = CARTESIAN_POINT ( 'NONE',  ( 0.0000000000000000000, 0.0000000000000000000, 0.0000000000000000000 ) ) ;
#190 = PERSON_AND_ORGANIZATION ( #9, #19 ) ;
#191 = APPLICATION_PROTOCOL_DEFINITION ( 'international standard', 'config_control_design', 1994, #88 ) ;
#192 = AXIS2_PLACEMENT_3D ( 'NONE', #122, #170, #45 ) ;
#193 = EDGE_LOOP ( 'NONE', ( #100 ) ) ;
#194 = ADVANCED_BREP_SHAPE_REPRESENTATION ( '957045', ( #139, #65, #104 ), #2 ) ;
#195 = CONICAL_SURFACE ( 'NONE', #141, 0.6500000000000000222, 0.7853981633974510546 ) ;
#196 = DIRECTION ( 'NONE',  ( 0.0000000000000000000, 1.000000000000000000, 0.0000000000000000000 ) ) ;
#197 = ORIENTED_EDGE ( 'NONE', *, *, #55, .F. ) ;
#198 = FACE_OUTER_BOUND ( 'NONE', #37, .T. ) ;
#199 = DIRECTION ( 'NONE',  ( -3.491481338843133355E-15, 1.224646799147353207E-16, -1.000000000000000000 ) ) ;
#200 = AXIS2_PLACEMENT_3D ( 'NONE', #4, #82, #79 ) ;
#201 = DIRECTION ( 'NONE',  ( -3.491481338843133355E-15, 1.224646799147353207E-16, -1.000000000000000000 ) ) ;
#202 = DIRECTION ( 'NONE',  ( -3.491481338843133355E-15, 1.224646799147353207E-16, -1.000000000000000000 ) ) ;
#203 = DIRECTION ( 'NONE',  ( 3.491481338843133355E-15, -1.224646799147353207E-16, 1.000000000000000000 ) ) ;
#204 = PERSON_AND_ORGANIZATION_ROLE ( 'creator' ) ;
#205 = APPROVAL_PERSON_ORGANIZATION ( #159, #71, #20 ) ;
#206 = PERSON_AND_ORGANIZATION ( #9, #19 ) ;
#207 = CC_DESIGN_DATE_AND_TIME_ASSIGNMENT ( #96, #174, ( #47 ) ) ;
#208 = PERSON_AND_ORGANIZATION ( #9, #19 ) ;
#209 = CARTESIAN_POINT ( 'NONE',  ( 3.302589916381525225E-14, -1.158392606885037958E-15, 9.458993464005752472 ) ) ;
#210 = LOCAL_TIME ( 7, 54, 12.00000000000000000, #75 ) ;
#211 = ORIENTED_EDGE ( 'NONE', *, *, #216, .F. ) ;
#212 = FACE_OUTER_BOUND ( 'NONE', #103, .T. ) ;
#213 = ORIENTED_EDGE ( 'NONE', *, *, #55, .T. ) ;
#214 = AXIS2_PLACEMENT_3D ( 'NONE', #184, #69, #110 ) ;
#215 = DIRECTION ( 'NONE',  ( 3.491481338843133355E-15, -1.224646799147353207E-16, 1.000000000000000000 ) ) ;
#216 = EDGE_CURVE ( 'NONE', #219, #219, #61, .T. ) ;
#217 = DIRECTION ( 'NONE',  ( 3.491481338843133355E-15, -1.224646799147353207E-16, 1.000000000000000000 ) ) ;
#218 = CARTESIAN_POINT ( 'NONE',  ( 1.047444401652940007E-13, -3.673940397442059178E-15, 30.00000000000000000 ) ) ;
#219 = VERTEX_POINT ( 'NONE', #220 ) ;
#220 = CARTESIAN_POINT ( 'NONE',  ( 1.047444401652940007E-13, 0.6499999999999962474, 30.00000000000000000 ) ) ;
#221 = CC_DESIGN_DATE_AND_TIME_ASSIGNMENT ( #126, #54, ( #70 ) ) ;
#222 = APPROVAL_STATUS ( 'not_yet_approved' ) ;
#223 = APPROVAL_STATUS ( 'not_yet_approved' ) ;
ENDSEC;
END-ISO-10303-21;
