ISO-10303-21;
HEADER;
FILE_DESCRIPTION (( 'STEP AP203' ),
    '1' );
FILE_NAME ('957043.step',
    '2021-10-08T05:54:11',
    ( '' ),
    ( '' ),
    'SwSTEP 2.0',
    'SolidWorks 2019',
    '' );
FILE_SCHEMA (( 'CONFIG_CONTROL_DESIGN' ));
ENDSEC;

DATA;
#1 = DIRECTION ( 'NONE',  ( 3.491481338843133355E-15, -1.224646799147353207E-16, 1.000000000000000000 ) ) ;
#2 = DIRECTION ( 'NONE',  ( -3.491481338843133355E-15, 1.224646799147353207E-16, -1.000000000000000000 ) ) ;
#3 = AXIS2_PLACEMENT_3D ( 'NONE', #182, #83, #117 ) ;
#4 = CARTESIAN_POINT ( 'NONE',  ( 1.047444401652940007E-13, 0.6499999999999962474, 30.00000000000000000 ) ) ;
#5 = PRODUCT_DEFINITION ( 'UNKNOWN', '', #210, #16 ) ;
#6 = ORIENTED_EDGE ( 'NONE', *, *, #80, .F. ) ;
#7 = PERSON_AND_ORGANIZATION ( #69, #43 ) ;
#8 = DIRECTION ( 'NONE',  ( -3.491481338843133355E-15, 1.224646799147353207E-16, -1.000000000000000000 ) ) ;
#9 = CC_DESIGN_PERSON_AND_ORGANIZATION_ASSIGNMENT ( #107, #18, ( #210 ) ) ;
#10 = DIRECTION ( 'NONE',  ( 3.491481338843133355E-15, -1.224646799147353207E-16, 1.000000000000000000 ) ) ;
#11 = LOCAL_TIME ( 7, 54, 11.00000000000000000, #79 ) ;
#12 = PLANE ( 'NONE',  #61 ) ;
#13 = DIRECTION ( 'NONE',  ( 0.0000000000000000000, 1.000000000000000000, 0.0000000000000000000 ) ) ;
#14 = DIRECTION ( 'NONE',  ( -3.491481338843133355E-15, 1.224646799147353207E-16, -1.000000000000000000 ) ) ;
#15 = CARTESIAN_POINT ( 'NONE',  ( 2.478951750578624051E-14, 0.4699999999999986411, 7.099999999999998757 ) ) ;
#16 = DESIGN_CONTEXT ( 'detailed design', #151, 'design' ) ;
#17 = VERTEX_POINT ( 'NONE', #36 ) ;
#18 = PERSON_AND_ORGANIZATION_ROLE ( 'creator' ) ;
#19 = AXIS2_PLACEMENT_3D ( 'NONE', #153, #2, #223 ) ;
#20 = PERSON_AND_ORGANIZATION_ROLE ( 'design_owner' ) ;
#21 = PERSON_AND_ORGANIZATION ( #69, #43 ) ;
#22 = EDGE_LOOP ( 'NONE', ( #196 ) ) ;
#23 = APPROVAL_STATUS ( 'not_yet_approved' ) ;
#24 = DATE_AND_TIME ( #161, #11 ) ;
#25 =( GEOMETRIC_REPRESENTATION_CONTEXT ( 3 ) GLOBAL_UNCERTAINTY_ASSIGNED_CONTEXT ( ( #189 ) ) GLOBAL_UNIT_ASSIGNED_CONTEXT ( ( #119, #209, #110 ) ) REPRESENTATION_CONTEXT ( 'NONE', 'WORKASPACE' ) );
#26 = CIRCLE ( 'NONE', #140, 0.7499999999999973355 ) ;
#27 = CARTESIAN_POINT ( 'NONE',  ( 9.474296147002789697E-16, -3.323135748004740446E-17, 0.2713546265191267293 ) ) ;
#28 = FACE_OUTER_BOUND ( 'NONE', #127, .T. ) ;
#29 = DIRECTION ( 'NONE',  ( 4.275831445896959482E-31, 1.000000000000000000, 1.224646799147353454E-16 ) ) ;
#30 = ADVANCED_FACE ( 'NONE', ( #207, #133 ), #85, .T. ) ;
#31 = AXIS2_PLACEMENT_3D ( 'NONE', #169, #10, #168 ) ;
#32 = FACE_OUTER_BOUND ( 'NONE', #142, .T. ) ;
#33 = EDGE_LOOP ( 'NONE', ( #58 ) ) ;
#34 = DATE_TIME_ROLE ( 'creation_date' ) ;
#35 = CIRCLE ( 'NONE', #221, 0.4699999999999994738 ) ;
#36 = CARTESIAN_POINT ( 'NONE',  ( 1.043952920314096810E-13, 0.7499999999999962252, 29.89999999999999858 ) ) ;
#37 = EDGE_LOOP ( 'NONE', ( #39 ) ) ;
#38 = APPROVAL_DATE_TIME ( #141, #134 ) ;
#39 = ORIENTED_EDGE ( 'NONE', *, *, #150, .F. ) ;
#40 = APPROVAL_ROLE ( '' ) ;
#41 = CLOSED_SHELL ( 'NONE', ( #72, #30, #97 ) ) ;
#42 = APPLICATION_CONTEXT ( 'configuration controlled 3d designs of mechanical parts and assemblies' ) ;
#43 = ORGANIZATION ( 'UNSPECIFIED', 'UNSPECIFIED', '' ) ;
#44 = CARTESIAN_POINT ( 'NONE',  ( 2.478951750578624051E-14, -8.694992273946205774E-16, 7.099999999999998757 ) ) ;
#45 = CARTESIAN_POINT ( 'NONE',  ( 2.478951750578624051E-14, 1.097456131022936872E-31, 7.099999999999998757 ) ) ;
#46 = CARTESIAN_POINT ( 'NONE',  ( 2.478951750578624051E-14, 1.097456131022936872E-31, 7.099999999999998757 ) ) ;
#47 = CC_DESIGN_SECURITY_CLASSIFICATION ( #106, ( #210 ) ) ;
#48 = DIRECTION ( 'NONE',  ( -4.275831445896958607E-31, -1.000000000000000000, -1.224646799147353207E-16 ) ) ;
#49 = VERTEX_POINT ( 'NONE', #123 ) ;
#50 = CC_DESIGN_DATE_AND_TIME_ASSIGNMENT ( #154, #34, ( #5 ) ) ;
#51 = APPROVAL_STATUS ( 'not_yet_approved' ) ;
#52 = AXIS2_PLACEMENT_3D ( 'NONE', #157, #143, #57 ) ;
#53 = DATE_AND_TIME ( #211, #112 ) ;
#54 = ORIENTED_EDGE ( 'NONE', *, *, #188, .F. ) ;
#55 = MANIFOLD_SOLID_BREP ( 'Corps-Déplacer/Copier1[2]', #41 ) ;
#56 = VERTEX_POINT ( 'NONE', #176 ) ;
#57 = DIRECTION ( 'NONE',  ( 1.000000000000000000, 0.0000000000000000000, 0.0000000000000000000 ) ) ;
#58 = ORIENTED_EDGE ( 'NONE', *, *, #198, .F. ) ;
#59 = PERSON_AND_ORGANIZATION_ROLE ( 'classification_officer' ) ;
#60 = AXIS2_PLACEMENT_3D ( 'NONE', #163, #8, #101 ) ;
#61 = AXIS2_PLACEMENT_3D ( 'NONE', #46, #1, #206 ) ;
#62 = DIRECTION ( 'NONE',  ( -3.491481338843133355E-15, 1.224646799147353207E-16, -1.000000000000000000 ) ) ;
#63 = AXIS2_PLACEMENT_3D ( 'NONE', #45, #114, #48 ) ;
#64 = CARTESIAN_POINT ( 'NONE',  ( 1.047444401652940007E-13, -3.673940397442059178E-15, 30.00000000000000000 ) ) ;
#65 = FACE_OUTER_BOUND ( 'NONE', #33, .T. ) ;
#66 = DIRECTION ( 'NONE',  ( -3.491481338843133355E-15, 1.224646799147353207E-16, -1.000000000000000000 ) ) ;
#67 = ORIENTED_EDGE ( 'NONE', *, *, #214, .F. ) ;
#68 = APPLICATION_PROTOCOL_DEFINITION ( 'international standard', 'config_control_design', 1994, #42 ) ;
#69 = PERSON ( 'UNSPECIFIED', 'UNSPECIFIED', 'UNSPECIFIED', ('UNSPECIFIED'), ('UNSPECIFIED'), ('UNSPECIFIED') ) ;
#70 = APPROVAL ( #51, 'UNSPECIFIED' ) ;
#71 = PERSON_AND_ORGANIZATION_ROLE ( 'creator' ) ;
#72 = ADVANCED_FACE ( 'NONE', ( #32 ), #99, .T. ) ;
#73 = APPROVAL_ROLE ( '' ) ;
#74 = CC_DESIGN_APPROVAL ( #70, ( #210 ) ) ;
#75 = SECURITY_CLASSIFICATION_LEVEL ( 'unclassified' ) ;
#76 = EDGE_LOOP ( 'NONE', ( #54 ) ) ;
#77 = VERTEX_POINT ( 'NONE', #90 ) ;
#78 = CC_DESIGN_APPROVAL ( #134, ( #5 ) ) ;
#79 = COORDINATED_UNIVERSAL_TIME_OFFSET ( 1, 0, .AHEAD. ) ;
#80 = EDGE_CURVE ( 'NONE', #56, #56, #102, .T. ) ;
#81 = COORDINATED_UNIVERSAL_TIME_OFFSET ( 1, 0, .AHEAD. ) ;
#82 = EDGE_LOOP ( 'NONE', ( #159 ) ) ;
#83 = DIRECTION ( 'NONE',  ( -3.491481338843133355E-15, 1.224646799147353207E-16, -1.000000000000000000 ) ) ;
#84 = LOCAL_TIME ( 7, 54, 11.00000000000000000, #88 ) ;
#85 = CYLINDRICAL_SURFACE ( 'NONE', #3, 0.4699999999999993627 ) ;
#86 = APPROVAL ( #23, 'UNSPECIFIED' ) ;
#87 = CARTESIAN_POINT ( 'NONE',  ( 2.648279596610162716E-14, -9.288914407632157571E-16, 7.584974226119286733 ) ) ;
#88 = COORDINATED_UNIVERSAL_TIME_OFFSET ( 1, 0, .AHEAD. ) ;
#89 = CIRCLE ( 'NONE', #185, 0.7499999999999998890 ) ;
#90 = CARTESIAN_POINT ( 'NONE',  ( 2.648279596610162716E-14, 0.7499999999999963363, 7.584974226119286733 ) ) ;
#91 = PERSON_AND_ORGANIZATION ( #69, #43 ) ;
#92 = APPROVAL_PERSON_ORGANIZATION ( #137, #70, #120 ) ;
#93 = ORIENTED_EDGE ( 'NONE', *, *, #150, .T. ) ;
#94 = APPROVAL_DATE_TIME ( #216, #86 ) ;
#95 = CLOSED_SHELL ( 'NONE', ( #173, #170, #126, #130, #222 ) ) ;
#96 = CALENDAR_DATE ( 2021, 8, 10 ) ;
#97 = ADVANCED_FACE ( 'NONE', ( #65 ), #201, .T. ) ;
#98 = PRODUCT_RELATED_PRODUCT_CATEGORY ( 'detail', '', ( #205 ) ) ;
#99 = CONICAL_SURFACE ( 'NONE', #158, 0.4699999999999991962, 1.047197551196592746 ) ;
#100 = FACE_OUTER_BOUND ( 'NONE', #82, .T. ) ;
#101 = DIRECTION ( 'NONE',  ( 4.275831445896958607E-31, 1.000000000000000000, 1.224646799147353207E-16 ) ) ;
#102 = CIRCLE ( 'NONE', #162, 0.4699999999999991962 ) ;
#103 = CARTESIAN_POINT ( 'NONE',  ( 0.0000000000000000000, 0.0000000000000000000, 0.0000000000000000000 ) ) ;
#104 = DIRECTION ( 'NONE',  ( 0.0000000000000000000, 1.000000000000000000, 0.0000000000000000000 ) ) ;
#105 = FACE_OUTER_BOUND ( 'NONE', #22, .T. ) ;
#106 = SECURITY_CLASSIFICATION ( '', '', #75 ) ;
#107 = PERSON_AND_ORGANIZATION ( #69, #43 ) ;
#108 = VERTEX_POINT ( 'NONE', #15 ) ;
#109 = EDGE_LOOP ( 'NONE', ( #6 ) ) ;
#110 =( NAMED_UNIT ( * ) SI_UNIT ( $, .STERADIAN. ) SOLID_ANGLE_UNIT ( ) );
#111 = ADVANCED_BREP_SHAPE_REPRESENTATION ( '957043', ( #204, #55, #52 ), #25 ) ;
#112 = LOCAL_TIME ( 7, 54, 11.00000000000000000, #191 ) ;
#113 = DIRECTION ( 'NONE',  ( 0.0000000000000000000, 1.000000000000000000, 0.0000000000000000000 ) ) ;
#114 = DIRECTION ( 'NONE',  ( 3.491481338843133355E-15, -1.224646799147353207E-16, 1.000000000000000000 ) ) ;
#115 = FACE_OUTER_BOUND ( 'NONE', #215, .T. ) ;
#116 = CC_DESIGN_APPROVAL ( #86, ( #106 ) ) ;
#117 = DIRECTION ( 'NONE',  ( 4.275831445896957731E-31, 1.000000000000000000, 1.224646799147353207E-16 ) ) ;
#118 = CYLINDRICAL_SURFACE ( 'NONE', #165, 0.7499999999999985567 ) ;
#119 =( LENGTH_UNIT ( ) NAMED_UNIT ( * ) SI_UNIT ( .MILLI., .METRE. ) );
#120 = APPROVAL_ROLE ( '' ) ;
#121 = AXIS2_PLACEMENT_3D ( 'NONE', #64, #129, #199 ) ;
#122 = APPROVAL_DATE_TIME ( #53, #70 ) ;
#123 = CARTESIAN_POINT ( 'NONE',  ( 2.478951750578624051E-14, 0.4699999999999986411, 7.099999999999998757 ) ) ;
#124 = EDGE_LOOP ( 'NONE', ( #67 ) ) ;
#125 = COORDINATED_UNIVERSAL_TIME_OFFSET ( 1, 0, .AHEAD. ) ;
#126 = ADVANCED_FACE ( 'NONE', ( #220, #115 ), #118, .T. ) ;
#127 = EDGE_LOOP ( 'NONE', ( #93 ) ) ;
#128 = DATE_TIME_ROLE ( 'classification_date' ) ;
#129 = DIRECTION ( 'NONE',  ( -3.491481338843133355E-15, 1.224646799147353207E-16, -1.000000000000000000 ) ) ;
#130 = ADVANCED_FACE ( 'NONE', ( #186, #187 ), #200, .T. ) ;
#131 = CONICAL_SURFACE ( 'NONE', #31, 0.7499999999999973355, 0.5235987755982931535 ) ;
#132 = PLANE ( 'NONE',  #60 ) ;
#133 = FACE_OUTER_BOUND ( 'NONE', #212, .T. ) ;
#134 = APPROVAL ( #155, 'UNSPECIFIED' ) ;
#135 = DIRECTION ( 'NONE',  ( 0.0000000000000000000, 1.000000000000000000, 0.0000000000000000000 ) ) ;
#136 = DIRECTION ( 'NONE',  ( -4.097723285930295627E-31, -1.000000000000000000, -1.153406566473942739E-16 ) ) ;
#137 = PERSON_AND_ORGANIZATION ( #69, #43 ) ;
#138 = CC_DESIGN_PERSON_AND_ORGANIZATION_ASSIGNMENT ( #91, #156, ( #210 ) ) ;
#139 = CALENDAR_DATE ( 2021, 8, 10 ) ;
#140 = AXIS2_PLACEMENT_3D ( 'NONE', #87, #14, #113 ) ;
#141 = DATE_AND_TIME ( #194, #180 ) ;
#142 = EDGE_LOOP ( 'NONE', ( #195 ) ) ;
#143 = DIRECTION ( 'NONE',  ( 0.0000000000000000000, 0.0000000000000000000, 1.000000000000000000 ) ) ;
#144 = CIRCLE ( 'NONE', #121, 0.6500000000000000222 ) ;
#145 = DIRECTION ( 'NONE',  ( -3.491481338843133355E-15, 1.224646799147353207E-16, -1.000000000000000000 ) ) ;
#146 = CC_DESIGN_PERSON_AND_ORGANIZATION_ASSIGNMENT ( #174, #71, ( #5 ) ) ;
#147 = DIRECTION ( 'NONE',  ( -3.491481338843133355E-15, 1.224646799147353207E-16, -1.000000000000000000 ) ) ;
#148 = APPROVAL_PERSON_ORGANIZATION ( #172, #134, #73 ) ;
#149 = DIRECTION ( 'NONE',  ( 4.097723285930295627E-31, 1.000000000000000000, 1.153406566473942739E-16 ) ) ;
#150 = EDGE_CURVE ( 'NONE', #108, #108, #35, .T. ) ;
#151 = APPLICATION_CONTEXT ( 'configuration controlled 3d designs of mechanical parts and assemblies' ) ;
#152 = CARTESIAN_POINT ( 'NONE',  ( 2.478951750578624051E-14, -8.694992273946205774E-16, 7.099999999999998757 ) ) ;
#153 = CARTESIAN_POINT ( 'NONE',  ( 1.047444401652940007E-13, -3.673940397442059178E-15, 30.00000000000000000 ) ) ;
#154 = DATE_AND_TIME ( #139, #84 ) ;
#155 = APPROVAL_STATUS ( 'not_yet_approved' ) ;
#156 = PERSON_AND_ORGANIZATION_ROLE ( 'design_supplier' ) ;
#157 = CARTESIAN_POINT ( 'NONE',  ( 0.0000000000000000000, 0.0000000000000000000, 0.0000000000000000000 ) ) ;
#158 = AXIS2_PLACEMENT_3D ( 'NONE', #203, #181, #136 ) ;
#159 = ORIENTED_EDGE ( 'NONE', *, *, #217, .F. ) ;
#160 = CC_DESIGN_DATE_AND_TIME_ASSIGNMENT ( #24, #128, ( #106 ) ) ;
#161 = CALENDAR_DATE ( 2021, 8, 10 ) ;
#162 = AXIS2_PLACEMENT_3D ( 'NONE', #27, #183, #149 ) ;
#163 = CARTESIAN_POINT ( 'NONE',  ( 1.047444401652940007E-13, 4.874219293650981803E-33, 30.00000000000000000 ) ) ;
#164 = ORIENTED_EDGE ( 'NONE', *, *, #217, .T. ) ;
#165 = AXIS2_PLACEMENT_3D ( 'NONE', #103, #66, #29 ) ;
#166 = FACE_BOUND ( 'NONE', #37, .T. ) ;
#167 = PRODUCT_DEFINITION_SHAPE ( 'NONE', 'NONE',  #5 ) ;
#168 = DIRECTION ( 'NONE',  ( 0.0000000000000000000, -1.000000000000000000, 0.0000000000000000000 ) ) ;
#169 = CARTESIAN_POINT ( 'NONE',  ( 2.648279596610162716E-14, -9.288914407632157571E-16, 7.584974226119286733 ) ) ;
#170 = ADVANCED_FACE ( 'NONE', ( #166, #105 ), #131, .T. ) ;
#171 = MECHANICAL_CONTEXT ( 'NONE', #42, 'mechanical' ) ;
#172 = PERSON_AND_ORGANIZATION ( #69, #43 ) ;
#173 = ADVANCED_FACE ( 'NONE', ( #28 ), #12, .F. ) ;
#174 = PERSON_AND_ORGANIZATION ( #69, #43 ) ;
#175 = ORIENTED_EDGE ( 'NONE', *, *, #198, .T. ) ;
#176 = CARTESIAN_POINT ( 'NONE',  ( 9.474296147002791669E-16, 0.4699999999999991407, 0.2713546265191267848 ) ) ;
#177 = APPLICATION_PROTOCOL_DEFINITION ( 'international standard', 'config_control_design', 1994, #151 ) ;
#178 = ORIENTED_EDGE ( 'NONE', *, *, #214, .T. ) ;
#179 = CC_DESIGN_PERSON_AND_ORGANIZATION_ASSIGNMENT ( #208, #20, ( #205 ) ) ;
#180 = LOCAL_TIME ( 7, 54, 11.00000000000000000, #125 ) ;
#181 = DIRECTION ( 'NONE',  ( 3.491481338843133355E-15, -1.224646799147353207E-16, 1.000000000000000000 ) ) ;
#182 = CARTESIAN_POINT ( 'NONE',  ( 0.0000000000000000000, 0.0000000000000000000, 0.0000000000000000000 ) ) ;
#183 = DIRECTION ( 'NONE',  ( -3.491481338843133355E-15, 1.224646799147353207E-16, -1.000000000000000000 ) ) ;
#184 = APPROVAL_PERSON_ORGANIZATION ( #21, #86, #40 ) ;
#185 = AXIS2_PLACEMENT_3D ( 'NONE', #219, #62, #135 ) ;
#186 = FACE_OUTER_BOUND ( 'NONE', #124, .T. ) ;
#187 = FACE_BOUND ( 'NONE', #193, .T. ) ;
#188 = EDGE_CURVE ( 'NONE', #77, #77, #26, .T. ) ;
#189 = UNCERTAINTY_MEASURE_WITH_UNIT (LENGTH_MEASURE( 1.000000000000000082E-05 ), #119, 'distance_accuracy_value', 'NONE');
#190 = AXIS2_PLACEMENT_3D ( 'NONE', #152, #145, #13 ) ;
#191 = COORDINATED_UNIVERSAL_TIME_OFFSET ( 1, 0, .AHEAD. ) ;
#192 = VERTEX_POINT ( 'NONE', #4 ) ;
#193 = EDGE_LOOP ( 'NONE', ( #164 ) ) ;
#194 = CALENDAR_DATE ( 2021, 8, 10 ) ;
#195 = ORIENTED_EDGE ( 'NONE', *, *, #80, .T. ) ;
#196 = ORIENTED_EDGE ( 'NONE', *, *, #188, .T. ) ;
#197 = SHAPE_DEFINITION_REPRESENTATION ( #167, #111 ) ;
#198 = EDGE_CURVE ( 'NONE', #49, #49, #213, .T. ) ;
#199 = DIRECTION ( 'NONE',  ( 0.0000000000000000000, 1.000000000000000000, 0.0000000000000000000 ) ) ;
#200 = CONICAL_SURFACE ( 'NONE', #19, 0.6500000000000000222, 0.7853981633974510546 ) ;
#201 = PLANE ( 'NONE',  #63 ) ;
#202 = CC_DESIGN_PERSON_AND_ORGANIZATION_ASSIGNMENT ( #7, #59, ( #106 ) ) ;
#203 = CARTESIAN_POINT ( 'NONE',  ( 9.474296147002789697E-16, -3.323135748004740446E-17, 0.2713546265191267293 ) ) ;
#204 = MANIFOLD_SOLID_BREP ( 'Corps-Déplacer/Copier1[1]', #95 ) ;
#205 = PRODUCT ( '957043', '957043', '', ( #171 ) ) ;
#206 = DIRECTION ( 'NONE',  ( -4.275831445896958607E-31, -1.000000000000000000, -1.224646799147353207E-16 ) ) ;
#207 = FACE_OUTER_BOUND ( 'NONE', #109, .T. ) ;
#208 = PERSON_AND_ORGANIZATION ( #69, #43 ) ;
#209 =( NAMED_UNIT ( * ) PLANE_ANGLE_UNIT ( ) SI_UNIT ( $, .RADIAN. ) );
#210 = PRODUCT_DEFINITION_FORMATION_WITH_SPECIFIED_SOURCE ( 'ANY', '', #205, .NOT_KNOWN. ) ;
#211 = CALENDAR_DATE ( 2021, 8, 10 ) ;
#212 = EDGE_LOOP ( 'NONE', ( #175 ) ) ;
#213 = CIRCLE ( 'NONE', #190, 0.4699999999999994738 ) ;
#214 = EDGE_CURVE ( 'NONE', #17, #17, #89, .T. ) ;
#215 = EDGE_LOOP ( 'NONE', ( #178 ) ) ;
#216 = DATE_AND_TIME ( #96, #218 ) ;
#217 = EDGE_CURVE ( 'NONE', #192, #192, #144, .T. ) ;
#218 = LOCAL_TIME ( 7, 54, 11.00000000000000000, #81 ) ;
#219 = CARTESIAN_POINT ( 'NONE',  ( 1.043952920314096810E-13, -3.661693929450586610E-15, 29.89999999999999858 ) ) ;
#220 = FACE_OUTER_BOUND ( 'NONE', #76, .T. ) ;
#221 = AXIS2_PLACEMENT_3D ( 'NONE', #44, #147, #104 ) ;
#222 = ADVANCED_FACE ( 'NONE', ( #100 ), #132, .F. ) ;
#223 = DIRECTION ( 'NONE',  ( 0.0000000000000000000, 1.000000000000000000, 0.0000000000000000000 ) ) ;
ENDSEC;
END-ISO-10303-21;
