ISO-10303-21;
HEADER;
FILE_DESCRIPTION (( 'STEP AP203' ),
    '1' );
FILE_NAME ('957042.step',
    '2021-10-08T05:54:10',
    ( '' ),
    ( '' ),
    'SwSTEP 2.0',
    'SolidWorks 2019',
    '' );
FILE_SCHEMA (( 'CONFIG_CONTROL_DESIGN' ));
ENDSEC;

DATA;
#1 = EDGE_LOOP ( 'NONE', ( #41 ) ) ;
#2 = PERSON_AND_ORGANIZATION_ROLE ( 'design_supplier' ) ;
#3 = ADVANCED_FACE ( 'NONE', ( #25 ), #201, .F. ) ;
#4 = AXIS2_PLACEMENT_3D ( 'NONE', #130, #40, #42 ) ;
#5 = DIRECTION ( 'NONE',  ( -3.491481338843133355E-15, 1.224646799147353207E-16, -1.000000000000000000 ) ) ;
#6 = ORIENTED_EDGE ( 'NONE', *, *, #149, .T. ) ;
#7 = DIRECTION ( 'NONE',  ( 0.0000000000000000000, 1.000000000000000000, 0.0000000000000000000 ) ) ;
#8 = DIRECTION ( 'NONE',  ( -3.491481338843133355E-15, 1.224646799147353207E-16, -1.000000000000000000 ) ) ;
#9 = ADVANCED_FACE ( 'NONE', ( #24, #182 ), #150, .T. ) ;
#10 = CARTESIAN_POINT ( 'NONE',  ( 1.047444401652940007E-13, 4.874219293650981803E-33, 30.00000000000000000 ) ) ;
#11 = DIRECTION ( 'NONE',  ( -3.491481338843133355E-15, 1.224646799147353207E-16, -1.000000000000000000 ) ) ;
#12 = DIRECTION ( 'NONE',  ( 0.0000000000000000000, 1.000000000000000000, 0.0000000000000000000 ) ) ;
#13 = CIRCLE ( 'NONE', #68, 0.4650000000000005795 ) ;
#14 = VERTEX_POINT ( 'NONE', #220 ) ;
#15 = APPROVAL_ROLE ( '' ) ;
#16 = CALENDAR_DATE ( 2021, 8, 10 ) ;
#17 = CLOSED_SHELL ( 'NONE', ( #3, #191, #125, #9, #189 ) ) ;
#18 = APPROVAL_STATUS ( 'not_yet_approved' ) ;
#19 = DIRECTION ( 'NONE',  ( -4.141784826639222953E-31, -1.000000000000000000, -1.165808787618823679E-16 ) ) ;
#20 = PERSON_AND_ORGANIZATION ( #206, #168 ) ;
#21 = DIRECTION ( 'NONE',  ( 0.0000000000000000000, 1.000000000000000000, 0.0000000000000000000 ) ) ;
#22 = PERSON_AND_ORGANIZATION ( #206, #168 ) ;
#23 = CONICAL_SURFACE ( 'NONE', #64, 0.7499999999999973355, 0.5235987755982932645 ) ;
#24 = FACE_OUTER_BOUND ( 'NONE', #1, .T. ) ;
#25 = FACE_OUTER_BOUND ( 'NONE', #133, .T. ) ;
#26 = EDGE_LOOP ( 'NONE', ( #178 ) ) ;
#27 = APPROVAL_PERSON_ORGANIZATION ( #202, #157, #223 ) ;
#28 = FACE_OUTER_BOUND ( 'NONE', #161, .T. ) ;
#29 = EDGE_CURVE ( 'NONE', #118, #118, #93, .T. ) ;
#30 = FACE_OUTER_BOUND ( 'NONE', #198, .T. ) ;
#31 = PRODUCT_DEFINITION_FORMATION_WITH_SPECIFIED_SOURCE ( 'ANY', '', #171, .NOT_KNOWN. ) ;
#32 = DIRECTION ( 'NONE',  ( 3.491481338843133355E-15, -1.224646799147353207E-16, 1.000000000000000000 ) ) ;
#33 = CC_DESIGN_PERSON_AND_ORGANIZATION_ASSIGNMENT ( #20, #126, ( #31 ) ) ;
#34 = PERSON_AND_ORGANIZATION_ROLE ( 'classification_officer' ) ;
#35 = APPROVAL_DATE_TIME ( #222, #71 ) ;
#36 = COORDINATED_UNIVERSAL_TIME_OFFSET ( 1, 0, .AHEAD. ) ;
#37 = AXIS2_PLACEMENT_3D ( 'NONE', #213, #58, #19 ) ;
#38 = COORDINATED_UNIVERSAL_TIME_OFFSET ( 1, 0, .AHEAD. ) ;
#39 = DIRECTION ( 'NONE',  ( 0.0000000000000000000, 1.000000000000000000, 0.0000000000000000000 ) ) ;
#40 = DIRECTION ( 'NONE',  ( -3.491481338843133355E-15, 1.224646799147353207E-16, -1.000000000000000000 ) ) ;
#41 = ORIENTED_EDGE ( 'NONE', *, *, #106, .F. ) ;
#42 = DIRECTION ( 'NONE',  ( 4.141784826639222953E-31, 1.000000000000000000, 1.165808787618823679E-16 ) ) ;
#43 =( LENGTH_UNIT ( ) NAMED_UNIT ( * ) SI_UNIT ( .MILLI., .METRE. ) );
#44 = CARTESIAN_POINT ( 'NONE',  ( 1.047444401652940007E-13, 0.6499999999999962474, 30.00000000000000000 ) ) ;
#45 = CONICAL_SURFACE ( 'NONE', #37, 0.4649999999999993028, 1.047197551196592746 ) ;
#46 = PLANE ( 'NONE',  #142 ) ;
#47 = VERTEX_POINT ( 'NONE', #138 ) ;
#48 = VERTEX_POINT ( 'NONE', #169 ) ;
#49 = AXIS2_PLACEMENT_3D ( 'NONE', #96, #5, #147 ) ;
#50 = APPROVAL ( #18, 'UNSPECIFIED' ) ;
#51 = LOCAL_TIME ( 7, 54, 10.00000000000000000, #112 ) ;
#52 = CALENDAR_DATE ( 2021, 8, 10 ) ;
#53 = COORDINATED_UNIVERSAL_TIME_OFFSET ( 1, 0, .AHEAD. ) ;
#54 = PRODUCT_RELATED_PRODUCT_CATEGORY ( 'detail', '', ( #171 ) ) ;
#55 = DIRECTION ( 'NONE',  ( -3.491481338843133355E-15, 1.224646799147353207E-16, -1.000000000000000000 ) ) ;
#56 = AXIS2_PLACEMENT_3D ( 'NONE', #10, #120, #219 ) ;
#57 = DIRECTION ( 'NONE',  ( -3.491481338843133355E-15, 1.224646799147353207E-16, -1.000000000000000000 ) ) ;
#58 = DIRECTION ( 'NONE',  ( 3.491481338843133355E-15, -1.224646799147353207E-16, 1.000000000000000000 ) ) ;
#59 = UNCERTAINTY_MEASURE_WITH_UNIT (LENGTH_MEASURE( 1.000000000000000082E-05 ), #43, 'distance_accuracy_value', 'NONE');
#60 = DIRECTION ( 'NONE',  ( -3.491481338843133355E-15, 1.224646799147353207E-16, -1.000000000000000000 ) ) ;
#61 = ORIENTED_EDGE ( 'NONE', *, *, #29, .T. ) ;
#62 = CYLINDRICAL_SURFACE ( 'NONE', #154, 0.4649999999999999134 ) ;
#63 = DIRECTION ( 'NONE',  ( 4.275831445896958607E-31, 1.000000000000000000, 1.224646799147353454E-16 ) ) ;
#64 = AXIS2_PLACEMENT_3D ( 'NONE', #122, #80, #187 ) ;
#65 = PERSON_AND_ORGANIZATION ( #206, #168 ) ;
#66 = CARTESIAN_POINT ( 'NONE',  ( 0.0000000000000000000, 0.0000000000000000000, 0.0000000000000000000 ) ) ;
#67 = PRODUCT_DEFINITION ( 'UNKNOWN', '', #31, #199 ) ;
#68 = AXIS2_PLACEMENT_3D ( 'NONE', #139, #11, #12 ) ;
#69 = CC_DESIGN_SECURITY_CLASSIFICATION ( #103, ( #31 ) ) ;
#70 = PERSON_AND_ORGANIZATION ( #206, #168 ) ;
#71 = APPROVAL ( #175, 'UNSPECIFIED' ) ;
#72 = APPLICATION_CONTEXT ( 'configuration controlled 3d designs of mechanical parts and assemblies' ) ;
#73 = DIRECTION ( 'NONE',  ( 3.491481338843133355E-15, -1.224646799147353207E-16, 1.000000000000000000 ) ) ;
#74 = DATE_AND_TIME ( #108, #51 ) ;
#75 = AXIS2_PLACEMENT_3D ( 'NONE', #76, #57, #39 ) ;
#76 = CARTESIAN_POINT ( 'NONE',  ( 2.478951750578624682E-14, -8.694992273946207746E-16, 7.100000000000000533 ) ) ;
#77 = ORIENTED_EDGE ( 'NONE', *, *, #203, .T. ) ;
#78 = CIRCLE ( 'NONE', #75, 0.4650000000000005795 ) ;
#79 = DIRECTION ( 'NONE',  ( 0.0000000000000000000, 1.000000000000000000, 0.0000000000000000000 ) ) ;
#80 = DIRECTION ( 'NONE',  ( 3.491481338843133355E-15, -1.224646799147353207E-16, 1.000000000000000000 ) ) ;
#81 = CARTESIAN_POINT ( 'NONE',  ( 2.651303308146439904E-14, 0.7499999999999963363, 7.593634480157131605 ) ) ;
#82 = CC_DESIGN_APPROVAL ( #71, ( #31 ) ) ;
#83 = FACE_OUTER_BOUND ( 'NONE', #115, .T. ) ;
#84 = ADVANCED_FACE ( 'NONE', ( #95 ), #45, .T. ) ;
#85 = APPLICATION_CONTEXT ( 'configuration controlled 3d designs of mechanical parts and assemblies' ) ;
#86 = CIRCLE ( 'NONE', #98, 0.7499999999999973355 ) ;
#87 = FACE_OUTER_BOUND ( 'NONE', #26, .T. ) ;
#88 = PRODUCT_DEFINITION_SHAPE ( 'NONE', 'NONE',  #67 ) ;
#89 = DATE_AND_TIME ( #105, #181 ) ;
#90 = APPROVAL_ROLE ( '' ) ;
#91 = DATE_TIME_ROLE ( 'creation_date' ) ;
#92 = EDGE_LOOP ( 'NONE', ( #131 ) ) ;
#93 = CIRCLE ( 'NONE', #164, 0.6500000000000000222 ) ;
#94 = EDGE_CURVE ( 'NONE', #14, #14, #107, .T. ) ;
#95 = FACE_OUTER_BOUND ( 'NONE', #177, .T. ) ;
#96 = CARTESIAN_POINT ( 'NONE',  ( 1.047444401652940007E-13, -3.673940397442059178E-15, 30.00000000000000000 ) ) ;
#97 = EDGE_LOOP ( 'NONE', ( #77 ) ) ;
#98 = AXIS2_PLACEMENT_3D ( 'NONE', #148, #60, #21 ) ;
#99 = DIRECTION ( 'NONE',  ( 0.0000000000000000000, 0.0000000000000000000, 1.000000000000000000 ) ) ;
#100 = VERTEX_POINT ( 'NONE', #81 ) ;
#101 = FACE_BOUND ( 'NONE', #92, .T. ) ;
#102 = CC_DESIGN_PERSON_AND_ORGANIZATION_ASSIGNMENT ( #70, #34, ( #103 ) ) ;
#103 = SECURITY_CLASSIFICATION ( '', '', #162 ) ;
#104 = CARTESIAN_POINT ( 'NONE',  ( 0.0000000000000000000, 0.0000000000000000000, 0.0000000000000000000 ) ) ;
#105 = CALENDAR_DATE ( 2021, 8, 10 ) ;
#106 = EDGE_CURVE ( 'NONE', #48, #48, #173, .T. ) ;
#107 = CIRCLE ( 'NONE', #4, 0.4649999999999993028 ) ;
#108 = CALENDAR_DATE ( 2021, 8, 10 ) ;
#109 = ORIENTED_EDGE ( 'NONE', *, *, #145, .T. ) ;
#110 = APPROVAL_STATUS ( 'not_yet_approved' ) ;
#111 = CARTESIAN_POINT ( 'NONE',  ( 2.478951750578624682E-14, -1.027342361183495311E-31, 7.100000000000000533 ) ) ;
#112 = COORDINATED_UNIVERSAL_TIME_OFFSET ( 1, 0, .AHEAD. ) ;
#113 = ORIENTED_EDGE ( 'NONE', *, *, #94, .F. ) ;
#114 = LOCAL_TIME ( 7, 54, 10.00000000000000000, #53 ) ;
#115 = EDGE_LOOP ( 'NONE', ( #167 ) ) ;
#116 = FACE_OUTER_BOUND ( 'NONE', #214, .T. ) ;
#117 = CC_DESIGN_DATE_AND_TIME_ASSIGNMENT ( #74, #91, ( #67 ) ) ;
#118 = VERTEX_POINT ( 'NONE', #44 ) ;
#119 = AXIS2_PLACEMENT_3D ( 'NONE', #129, #197, #79 ) ;
#120 = DIRECTION ( 'NONE',  ( -3.491481338843133355E-15, 1.224646799147353207E-16, -1.000000000000000000 ) ) ;
#121 = MECHANICAL_CONTEXT ( 'NONE', #72, 'mechanical' ) ;
#122 = CARTESIAN_POINT ( 'NONE',  ( 2.651303308146439904E-14, -9.299520160019406041E-16, 7.593634480157131605 ) ) ;
#123 = APPLICATION_PROTOCOL_DEFINITION ( 'international standard', 'config_control_design', 1994, #72 ) ;
#124 = DATE_TIME_ROLE ( 'classification_date' ) ;
#125 = ADVANCED_FACE ( 'NONE', ( #165, #116 ), #146, .T. ) ;
#126 = PERSON_AND_ORGANIZATION_ROLE ( 'creator' ) ;
#127 = SHAPE_DEFINITION_REPRESENTATION ( #88, #188 ) ;
#128 = DIRECTION ( 'NONE',  ( -4.275831445896958607E-31, -1.000000000000000000, -1.224646799147353207E-16 ) ) ;
#129 = CARTESIAN_POINT ( 'NONE',  ( 1.043952920314096810E-13, -3.661693929450586610E-15, 29.89999999999999858 ) ) ;
#130 = CARTESIAN_POINT ( 'NONE',  ( 9.373505762460210164E-16, -3.287783240047243903E-17, 0.2684678751731786606 ) ) ;
#131 = ORIENTED_EDGE ( 'NONE', *, *, #145, .F. ) ;
#132 = CC_DESIGN_APPROVAL ( #157, ( #67 ) ) ;
#133 = EDGE_LOOP ( 'NONE', ( #109 ) ) ;
#134 = MANIFOLD_SOLID_BREP ( 'Corps-Déplacer/Copier1[2]', #221 ) ;
#135 = CARTESIAN_POINT ( 'NONE',  ( 2.478951750578624682E-14, 0.4649999999999996914, 7.100000000000000533 ) ) ;
#136 = APPLICATION_PROTOCOL_DEFINITION ( 'international standard', 'config_control_design', 1994, #85 ) ;
#137 = CC_DESIGN_DATE_AND_TIME_ASSIGNMENT ( #89, #124, ( #103 ) ) ;
#138 = CARTESIAN_POINT ( 'NONE',  ( 2.478951750578624682E-14, 0.4649999999999996914, 7.100000000000000533 ) ) ;
#139 = CARTESIAN_POINT ( 'NONE',  ( 2.478951750578624682E-14, -8.694992273946207746E-16, 7.100000000000000533 ) ) ;
#140 = AXIS2_PLACEMENT_3D ( 'NONE', #111, #73, #128 ) ;
#141 = PERSON_AND_ORGANIZATION ( #206, #168 ) ;
#142 = AXIS2_PLACEMENT_3D ( 'NONE', #190, #32, #153 ) ;
#143 = CC_DESIGN_PERSON_AND_ORGANIZATION_ASSIGNMENT ( #22, #2, ( #31 ) ) ;
#144 = APPROVAL_DATE_TIME ( #193, #157 ) ;
#145 = EDGE_CURVE ( 'NONE', #47, #47, #78, .T. ) ;
#146 = CYLINDRICAL_SURFACE ( 'NONE', #195, 0.7499999999999985567 ) ;
#147 = DIRECTION ( 'NONE',  ( 0.0000000000000000000, 1.000000000000000000, 0.0000000000000000000 ) ) ;
#148 = CARTESIAN_POINT ( 'NONE',  ( 2.651303308146439904E-14, -9.299520160019406041E-16, 7.593634480157131605 ) ) ;
#149 = EDGE_CURVE ( 'NONE', #100, #100, #86, .T. ) ;
#150 = CONICAL_SURFACE ( 'NONE', #49, 0.6500000000000000222, 0.7853981633974510546 ) ;
#151 = CARTESIAN_POINT ( 'NONE',  ( 1.047444401652940007E-13, -3.673940397442059178E-15, 30.00000000000000000 ) ) ;
#152 = PERSON_AND_ORGANIZATION_ROLE ( 'design_owner' ) ;
#153 = DIRECTION ( 'NONE',  ( -4.275831445896958607E-31, -1.000000000000000000, -1.224646799147353207E-16 ) ) ;
#154 = AXIS2_PLACEMENT_3D ( 'NONE', #104, #174, #63 ) ;
#155 = CC_DESIGN_PERSON_AND_ORGANIZATION_ASSIGNMENT ( #141, #207, ( #67 ) ) ;
#156 = LOCAL_TIME ( 7, 54, 10.00000000000000000, #38 ) ;
#157 = APPROVAL ( #110, 'UNSPECIFIED' ) ;
#158 = APPROVAL_DATE_TIME ( #176, #50 ) ;
#159 = LOCAL_TIME ( 7, 54, 10.00000000000000000, #160 ) ;
#160 = COORDINATED_UNIVERSAL_TIME_OFFSET ( 1, 0, .AHEAD. ) ;
#161 = EDGE_LOOP ( 'NONE', ( #6 ) ) ;
#162 = SECURITY_CLASSIFICATION_LEVEL ( 'unclassified' ) ;
#163 = ORIENTED_EDGE ( 'NONE', *, *, #94, .T. ) ;
#164 = AXIS2_PLACEMENT_3D ( 'NONE', #151, #8, #7 ) ;
#165 = FACE_OUTER_BOUND ( 'NONE', #180, .T. ) ;
#166 = ORIENTED_EDGE ( 'NONE', *, *, #149, .F. ) ;
#167 = ORIENTED_EDGE ( 'NONE', *, *, #29, .F. ) ;
#168 = ORGANIZATION ( 'UNSPECIFIED', 'UNSPECIFIED', '' ) ;
#169 = CARTESIAN_POINT ( 'NONE',  ( 1.043952920314096810E-13, 0.7499999999999962252, 29.89999999999999858 ) ) ;
#170 = DIRECTION ( 'NONE',  ( 1.000000000000000000, 0.0000000000000000000, 0.0000000000000000000 ) ) ;
#171 = PRODUCT ( '957042', '957042', '', ( #121 ) ) ;
#172 = CC_DESIGN_APPROVAL ( #50, ( #103 ) ) ;
#173 = CIRCLE ( 'NONE', #119, 0.7499999999999998890 ) ;
#174 = DIRECTION ( 'NONE',  ( -3.491481338843133355E-15, 1.224646799147353207E-16, -1.000000000000000000 ) ) ;
#175 = APPROVAL_STATUS ( 'not_yet_approved' ) ;
#176 = DATE_AND_TIME ( #52, #114 ) ;
#177 = EDGE_LOOP ( 'NONE', ( #163 ) ) ;
#178 = ORIENTED_EDGE ( 'NONE', *, *, #203, .F. ) ;
#179 = PERSON_AND_ORGANIZATION ( #206, #168 ) ;
#180 = EDGE_LOOP ( 'NONE', ( #166 ) ) ;
#181 = LOCAL_TIME ( 7, 54, 10.00000000000000000, #36 ) ;
#182 = FACE_BOUND ( 'NONE', #196, .T. ) ;
#183 = CARTESIAN_POINT ( 'NONE',  ( 0.0000000000000000000, 0.0000000000000000000, 0.0000000000000000000 ) ) ;
#184 = APPROVAL_PERSON_ORGANIZATION ( #179, #71, #15 ) ;
#185 =( NAMED_UNIT ( * ) SI_UNIT ( $, .STERADIAN. ) SOLID_ANGLE_UNIT ( ) );
#186 = VERTEX_POINT ( 'NONE', #135 ) ;
#187 = DIRECTION ( 'NONE',  ( 0.0000000000000000000, -1.000000000000000000, 0.0000000000000000000 ) ) ;
#188 = ADVANCED_BREP_SHAPE_REPRESENTATION ( '957042', ( #205, #134, #204 ), #192 ) ;
#189 = ADVANCED_FACE ( 'NONE', ( #83 ), #215, .F. ) ;
#190 = CARTESIAN_POINT ( 'NONE',  ( 2.478951750578624682E-14, -1.027342361183495311E-31, 7.100000000000000533 ) ) ;
#191 = ADVANCED_FACE ( 'NONE', ( #101, #28 ), #23, .T. ) ;
#192 =( GEOMETRIC_REPRESENTATION_CONTEXT ( 3 ) GLOBAL_UNCERTAINTY_ASSIGNED_CONTEXT ( ( #59 ) ) GLOBAL_UNIT_ASSIGNED_CONTEXT ( ( #43, #218, #185 ) ) REPRESENTATION_CONTEXT ( 'NONE', 'WORKASPACE' ) );
#193 = DATE_AND_TIME ( #209, #156 ) ;
#194 = CC_DESIGN_PERSON_AND_ORGANIZATION_ASSIGNMENT ( #65, #152, ( #171 ) ) ;
#195 = AXIS2_PLACEMENT_3D ( 'NONE', #183, #55, #211 ) ;
#196 = EDGE_LOOP ( 'NONE', ( #61 ) ) ;
#197 = DIRECTION ( 'NONE',  ( -3.491481338843133355E-15, 1.224646799147353207E-16, -1.000000000000000000 ) ) ;
#198 = EDGE_LOOP ( 'NONE', ( #113 ) ) ;
#199 = DESIGN_CONTEXT ( 'detailed design', #85, 'design' ) ;
#200 = ORIENTED_EDGE ( 'NONE', *, *, #106, .T. ) ;
#201 = PLANE ( 'NONE',  #140 ) ;
#202 = PERSON_AND_ORGANIZATION ( #206, #168 ) ;
#203 = EDGE_CURVE ( 'NONE', #186, #186, #13, .T. ) ;
#204 = AXIS2_PLACEMENT_3D ( 'NONE', #66, #99, #170 ) ;
#205 = MANIFOLD_SOLID_BREP ( 'Corps-Déplacer/Copier1[1]', #17 ) ;
#206 = PERSON ( 'UNSPECIFIED', 'UNSPECIFIED', 'UNSPECIFIED', ('UNSPECIFIED'), ('UNSPECIFIED'), ('UNSPECIFIED') ) ;
#207 = PERSON_AND_ORGANIZATION_ROLE ( 'creator' ) ;
#208 = APPROVAL_PERSON_ORGANIZATION ( #210, #50, #90 ) ;
#209 = CALENDAR_DATE ( 2021, 8, 10 ) ;
#210 = PERSON_AND_ORGANIZATION ( #206, #168 ) ;
#211 = DIRECTION ( 'NONE',  ( 4.275831445896959482E-31, 1.000000000000000000, 1.224646799147353454E-16 ) ) ;
#212 = ADVANCED_FACE ( 'NONE', ( #87 ), #46, .T. ) ;
#213 = CARTESIAN_POINT ( 'NONE',  ( 9.373505762460210164E-16, -3.287783240047243903E-17, 0.2684678751731786606 ) ) ;
#214 = EDGE_LOOP ( 'NONE', ( #200 ) ) ;
#215 = PLANE ( 'NONE',  #56 ) ;
#216 = ADVANCED_FACE ( 'NONE', ( #30, #217 ), #62, .T. ) ;
#217 = FACE_OUTER_BOUND ( 'NONE', #97, .T. ) ;
#218 =( NAMED_UNIT ( * ) PLANE_ANGLE_UNIT ( ) SI_UNIT ( $, .RADIAN. ) );
#219 = DIRECTION ( 'NONE',  ( 4.275831445896958607E-31, 1.000000000000000000, 1.224646799147353207E-16 ) ) ;
#220 = CARTESIAN_POINT ( 'NONE',  ( 9.373505762460212136E-16, 0.4649999999999992473, 0.2684678751731787161 ) ) ;
#221 = CLOSED_SHELL ( 'NONE', ( #84, #216, #212 ) ) ;
#222 = DATE_AND_TIME ( #16, #159 ) ;
#223 = APPROVAL_ROLE ( '' ) ;
ENDSEC;
END-ISO-10303-21;
