ISO-10303-21;
HEADER;
FILE_DESCRIPTION (( 'STEP AP203' ),
    '1' );
FILE_NAME ('957040.step',
    '2021-10-08T05:54:10',
    ( '' ),
    ( '' ),
    'SwSTEP 2.0',
    'SolidWorks 2019',
    '' );
FILE_SCHEMA (( 'CONFIG_CONTROL_DESIGN' ));
ENDSEC;

DATA;
#1 = CALENDAR_DATE ( 2021, 8, 10 ) ;
#2 = ADVANCED_FACE ( 'NONE', ( #78, #93 ), #25, .T. ) ;
#3 = AXIS2_PLACEMENT_3D ( 'NONE', #131, #18, #84 ) ;
#4 = APPROVAL_ROLE ( '' ) ;
#5 = DESIGN_CONTEXT ( 'detailed design', #152, 'design' ) ;
#6 = APPROVAL_ROLE ( '' ) ;
#7 =( NAMED_UNIT ( * ) PLANE_ANGLE_UNIT ( ) SI_UNIT ( $, .RADIAN. ) );
#8 = PERSON_AND_ORGANIZATION ( #222, #204 ) ;
#9 = LOCAL_TIME ( 7, 54, 10.00000000000000000, #210 ) ;
#10 = APPLICATION_CONTEXT ( 'configuration controlled 3d designs of mechanical parts and assemblies' ) ;
#11 = FACE_BOUND ( 'NONE', #94, .T. ) ;
#12 = CC_DESIGN_DATE_AND_TIME_ASSIGNMENT ( #69, #118, ( #209 ) ) ;
#13 = ORIENTED_EDGE ( 'NONE', *, *, #187, .F. ) ;
#14 = EDGE_LOOP ( 'NONE', ( #24 ) ) ;
#15 = CARTESIAN_POINT ( 'NONE',  ( 2.199633243471174014E-14, -7.715274834628325378E-16, 6.299999999999999822 ) ) ;
#16 = DIRECTION ( 'NONE',  ( -4.697390108261560452E-31, -1.000000000000000000, -1.322197771323788595E-16 ) ) ;
#17 = DIRECTION ( 'NONE',  ( -4.275831445896958607E-31, -1.000000000000000000, -1.224646799147353207E-16 ) ) ;
#18 = DIRECTION ( 'NONE',  ( -3.491481338843133355E-15, 1.224646799147353207E-16, -1.000000000000000000 ) ) ;
#19 = CC_DESIGN_DATE_AND_TIME_ASSIGNMENT ( #22, #134, ( #137 ) ) ;
#20 = SHAPE_DEFINITION_REPRESENTATION ( #153, #169 ) ;
#21 = PERSON_AND_ORGANIZATION ( #222, #204 ) ;
#22 = DATE_AND_TIME ( #138, #117 ) ;
#23 = DIRECTION ( 'NONE',  ( 3.491481338843133355E-15, -1.224646799147353207E-16, 1.000000000000000000 ) ) ;
#24 = ORIENTED_EDGE ( 'NONE', *, *, #142, .F. ) ;
#25 = CYLINDRICAL_SURFACE ( 'NONE', #179, 0.7499999999999984457 ) ;
#26 = FACE_OUTER_BOUND ( 'NONE', #60, .T. ) ;
#27 = FACE_OUTER_BOUND ( 'NONE', #162, .T. ) ;
#28 = DIRECTION ( 'NONE',  ( 3.491481338843133355E-15, -1.224646799147353207E-16, 1.000000000000000000 ) ) ;
#29 = CARTESIAN_POINT ( 'NONE',  ( 1.047444401652940007E-13, 4.874219293650981803E-33, 30.00000000000000000 ) ) ;
#30 = CARTESIAN_POINT ( 'NONE',  ( 2.199633243471174014E-14, 3.074507554456800775E-33, 6.299999999999999822 ) ) ;
#31 = APPROVAL ( #155, 'UNSPECIFIED' ) ;
#32 = CIRCLE ( 'NONE', #92, 0.6500000000000000222 ) ;
#33 = APPROVAL_PERSON_ORGANIZATION ( #21, #31, #6 ) ;
#34 = PERSON_AND_ORGANIZATION_ROLE ( 'classification_officer' ) ;
#35 = MECHANICAL_CONTEXT ( 'NONE', #10, 'mechanical' ) ;
#36 = APPROVAL_DATE_TIME ( #120, #31 ) ;
#37 = APPROVAL_DATE_TIME ( #195, #41 ) ;
#38 = AXIS2_PLACEMENT_3D ( 'NONE', #200, #43, #160 ) ;
#39 = EDGE_LOOP ( 'NONE', ( #196 ) ) ;
#40 = EDGE_LOOP ( 'NONE', ( #59 ) ) ;
#41 = APPROVAL ( #88, 'UNSPECIFIED' ) ;
#42 = EDGE_LOOP ( 'NONE', ( #178 ) ) ;
#43 = DIRECTION ( 'NONE',  ( -3.491481338843133355E-15, 1.224646799147353207E-16, -1.000000000000000000 ) ) ;
#44 = PLANE ( 'NONE',  #221 ) ;
#45 = EDGE_CURVE ( 'NONE', #133, #133, #197, .T. ) ;
#46 = CARTESIAN_POINT ( 'NONE',  ( 1.043952920314096810E-13, -3.661693929450586610E-15, 29.89999999999999858 ) ) ;
#47 = FACE_OUTER_BOUND ( 'NONE', #14, .T. ) ;
#48 = CARTESIAN_POINT ( 'NONE',  ( 2.199633243471174014E-14, -7.715274834628325378E-16, 6.299999999999999822 ) ) ;
#49 = CC_DESIGN_PERSON_AND_ORGANIZATION_ASSIGNMENT ( #8, #116, ( #51 ) ) ;
#50 = PERSON_AND_ORGANIZATION ( #222, #204 ) ;
#51 = PRODUCT_DEFINITION_FORMATION_WITH_SPECIFIED_SOURCE ( 'ANY', '', #148, .NOT_KNOWN. ) ;
#52 = PERSON_AND_ORGANIZATION_ROLE ( 'creator' ) ;
#53 = APPROVAL_ROLE ( '' ) ;
#54 = PERSON_AND_ORGANIZATION ( #222, #204 ) ;
#55 = AXIS2_PLACEMENT_3D ( 'NONE', #48, #184, #150 ) ;
#56 = DIRECTION ( 'NONE',  ( 1.000000000000000000, 0.0000000000000000000, 0.0000000000000000000 ) ) ;
#57 = ADVANCED_FACE ( 'NONE', ( #11, #213 ), #149, .T. ) ;
#58 = CARTESIAN_POINT ( 'NONE',  ( 2.405245627938042099E-14, -8.436465996961264732E-16, 6.888897274573420937 ) ) ;
#59 = ORIENTED_EDGE ( 'NONE', *, *, #163, .T. ) ;
#60 = EDGE_LOOP ( 'NONE', ( #139 ) ) ;
#61 = AXIS2_PLACEMENT_3D ( 'NONE', #186, #28, #16 ) ;
#62 = DIRECTION ( 'NONE',  ( 4.275831445896958607E-31, 1.000000000000000000, 1.224646799147353454E-16 ) ) ;
#63 = CARTESIAN_POINT ( 'NONE',  ( 2.405245627938042099E-14, 0.7499999999999963363, 6.888897274573420937 ) ) ;
#64 = DIRECTION ( 'NONE',  ( -3.491481338843133355E-15, 1.224646799147353207E-16, -1.000000000000000000 ) ) ;
#65 = CARTESIAN_POINT ( 'NONE',  ( 1.047444401652940007E-13, 0.6499999999999962474, 30.00000000000000000 ) ) ;
#66 = CIRCLE ( 'NONE', #55, 0.4100000000000005307 ) ;
#67 = DIRECTION ( 'NONE',  ( 0.0000000000000000000, 1.000000000000000000, 0.0000000000000000000 ) ) ;
#68 = DIRECTION ( 'NONE',  ( -4.275831445896958607E-31, -1.000000000000000000, -1.224646799147353207E-16 ) ) ;
#69 = DATE_AND_TIME ( #1, #76 ) ;
#70 = CIRCLE ( 'NONE', #214, 0.7499999999999998890 ) ;
#71 = APPROVAL_DATE_TIME ( #192, #105 ) ;
#72 = ADVANCED_FACE ( 'NONE', ( #207 ), #89, .T. ) ;
#73 = APPLICATION_PROTOCOL_DEFINITION ( 'international standard', 'config_control_design', 1994, #152 ) ;
#74 =( NAMED_UNIT ( * ) SI_UNIT ( $, .STERADIAN. ) SOLID_ANGLE_UNIT ( ) );
#75 = ADVANCED_FACE ( 'NONE', ( #82 ), #44, .F. ) ;
#76 = LOCAL_TIME ( 7, 54, 10.00000000000000000, #104 ) ;
#77 = ORIENTED_EDGE ( 'NONE', *, *, #156, .F. ) ;
#78 = FACE_OUTER_BOUND ( 'NONE', #123, .T. ) ;
#79 = CARTESIAN_POINT ( 'NONE',  ( 0.0000000000000000000, 0.0000000000000000000, 0.0000000000000000000 ) ) ;
#80 = CC_DESIGN_PERSON_AND_ORGANIZATION_ASSIGNMENT ( #54, #52, ( #137 ) ) ;
#81 = APPROVAL_PERSON_ORGANIZATION ( #91, #105, #53 ) ;
#82 = FACE_OUTER_BOUND ( 'NONE', #198, .T. ) ;
#83 = CARTESIAN_POINT ( 'NONE',  ( 8.264811532491795855E-16, 0.4099999999999991429, 0.2367136103677488501 ) ) ;
#84 = DIRECTION ( 'NONE',  ( 4.275831445896958607E-31, 1.000000000000000000, 1.224646799147353207E-16 ) ) ;
#85 = AXIS2_PLACEMENT_3D ( 'NONE', #29, #203, #205 ) ;
#86 = ADVANCED_FACE ( 'NONE', ( #130, #26 ), #132, .T. ) ;
#87 = DIRECTION ( 'NONE',  ( -3.491481338843133355E-15, 1.224646799147353207E-16, -1.000000000000000000 ) ) ;
#88 = APPROVAL_STATUS ( 'not_yet_approved' ) ;
#89 = CONICAL_SURFACE ( 'NONE', #61, 0.4099999999999991984, 1.047197551196592746 ) ;
#90 = PERSON_AND_ORGANIZATION_ROLE ( 'design_owner' ) ;
#91 = PERSON_AND_ORGANIZATION ( #222, #204 ) ;
#92 = AXIS2_PLACEMENT_3D ( 'NONE', #220, #114, #67 ) ;
#93 = FACE_OUTER_BOUND ( 'NONE', #40, .T. ) ;
#94 = EDGE_LOOP ( 'NONE', ( #13 ) ) ;
#95 = EDGE_LOOP ( 'NONE', ( #217 ) ) ;
#96 = EDGE_LOOP ( 'NONE', ( #161 ) ) ;
#97 = EDGE_CURVE ( 'NONE', #98, #98, #32, .T. ) ;
#98 = VERTEX_POINT ( 'NONE', #65 ) ;
#99 =( GEOMETRIC_REPRESENTATION_CONTEXT ( 3 ) GLOBAL_UNCERTAINTY_ASSIGNED_CONTEXT ( ( #193 ) ) GLOBAL_UNIT_ASSIGNED_CONTEXT ( ( #168, #7, #74 ) ) REPRESENTATION_CONTEXT ( 'NONE', 'WORKASPACE' ) );
#100 = DIRECTION ( 'NONE',  ( -3.491481338843133355E-15, 1.224646799147353207E-16, -1.000000000000000000 ) ) ;
#101 = PLANE ( 'NONE',  #85 ) ;
#102 = CARTESIAN_POINT ( 'NONE',  ( 2.405245627938042099E-14, -8.436465996961264732E-16, 6.888897274573420937 ) ) ;
#103 = CC_DESIGN_APPROVAL ( #105, ( #51 ) ) ;
#104 = COORDINATED_UNIVERSAL_TIME_OFFSET ( 1, 0, .AHEAD. ) ;
#105 = APPROVAL ( #158, 'UNSPECIFIED' ) ;
#106 = PERSON_AND_ORGANIZATION ( #222, #204 ) ;
#107 = AXIS2_PLACEMENT_3D ( 'NONE', #58, #23, #145 ) ;
#108 = EDGE_LOOP ( 'NONE', ( #181 ) ) ;
#109 = PRODUCT_RELATED_PRODUCT_CATEGORY ( 'detail', '', ( #148 ) ) ;
#110 = DIRECTION ( 'NONE',  ( 0.0000000000000000000, 1.000000000000000000, 0.0000000000000000000 ) ) ;
#111 = CARTESIAN_POINT ( 'NONE',  ( 2.199633243471174014E-14, 0.4099999999999997535, 6.299999999999999822 ) ) ;
#112 = CIRCLE ( 'NONE', #154, 0.4100000000000005307 ) ;
#113 = DIRECTION ( 'NONE',  ( 0.0000000000000000000, 1.000000000000000000, 0.0000000000000000000 ) ) ;
#114 = DIRECTION ( 'NONE',  ( -3.491481338843133355E-15, 1.224646799147353207E-16, -1.000000000000000000 ) ) ;
#115 = DIRECTION ( 'NONE',  ( 0.0000000000000000000, 1.000000000000000000, 0.0000000000000000000 ) ) ;
#116 = PERSON_AND_ORGANIZATION_ROLE ( 'creator' ) ;
#117 = LOCAL_TIME ( 7, 54, 10.00000000000000000, #175 ) ;
#118 = DATE_TIME_ROLE ( 'classification_date' ) ;
#119 = COORDINATED_UNIVERSAL_TIME_OFFSET ( 1, 0, .AHEAD. ) ;
#120 = DATE_AND_TIME ( #211, #180 ) ;
#121 = CLOSED_SHELL ( 'NONE', ( #75, #57, #2, #191, #176 ) ) ;
#122 = APPLICATION_PROTOCOL_DEFINITION ( 'international standard', 'config_control_design', 1994, #10 ) ;
#123 = EDGE_LOOP ( 'NONE', ( #77 ) ) ;
#124 = CC_DESIGN_PERSON_AND_ORGANIZATION_ASSIGNMENT ( #106, #90, ( #148 ) ) ;
#125 = AXIS2_PLACEMENT_3D ( 'NONE', #157, #174, #56 ) ;
#126 = CC_DESIGN_APPROVAL ( #31, ( #209 ) ) ;
#127 = MANIFOLD_SOLID_BREP ( 'Corps-Déplacer/Copier1[2]', #188 ) ;
#128 = CC_DESIGN_APPROVAL ( #41, ( #137 ) ) ;
#129 = VERTEX_POINT ( 'NONE', #202 ) ;
#130 = FACE_OUTER_BOUND ( 'NONE', #39, .T. ) ;
#131 = CARTESIAN_POINT ( 'NONE',  ( 0.0000000000000000000, 0.0000000000000000000, 0.0000000000000000000 ) ) ;
#132 = CYLINDRICAL_SURFACE ( 'NONE', #3, 0.4099999999999998646 ) ;
#133 = VERTEX_POINT ( 'NONE', #83 ) ;
#134 = DATE_TIME_ROLE ( 'creation_date' ) ;
#135 = PERSON_AND_ORGANIZATION ( #222, #204 ) ;
#136 = SECURITY_CLASSIFICATION_LEVEL ( 'unclassified' ) ;
#137 = PRODUCT_DEFINITION ( 'UNKNOWN', '', #51, #5 ) ;
#138 = CALENDAR_DATE ( 2021, 8, 10 ) ;
#139 = ORIENTED_EDGE ( 'NONE', *, *, #142, .T. ) ;
#140 = CIRCLE ( 'NONE', #173, 0.7499999999999972244 ) ;
#141 = ORIENTED_EDGE ( 'NONE', *, *, #97, .F. ) ;
#142 = EDGE_CURVE ( 'NONE', #147, #147, #66, .T. ) ;
#143 = DIRECTION ( 'NONE',  ( -3.491481338843133355E-15, 1.224646799147353207E-16, -1.000000000000000000 ) ) ;
#144 = CARTESIAN_POINT ( 'NONE',  ( 1.047444401652940007E-13, -3.673940397442059178E-15, 30.00000000000000000 ) ) ;
#145 = DIRECTION ( 'NONE',  ( 0.0000000000000000000, -1.000000000000000000, 0.0000000000000000000 ) ) ;
#146 = CC_DESIGN_PERSON_AND_ORGANIZATION_ASSIGNMENT ( #172, #34, ( #209 ) ) ;
#147 = VERTEX_POINT ( 'NONE', #111 ) ;
#148 = PRODUCT ( '957040', '957040', '', ( #35 ) ) ;
#149 = CONICAL_SURFACE ( 'NONE', #107, 0.7499999999999972244, 0.5235987755982925984 ) ;
#150 = DIRECTION ( 'NONE',  ( 0.0000000000000000000, 1.000000000000000000, 0.0000000000000000000 ) ) ;
#151 = PLANE ( 'NONE',  #159 ) ;
#152 = APPLICATION_CONTEXT ( 'configuration controlled 3d designs of mechanical parts and assemblies' ) ;
#153 = PRODUCT_DEFINITION_SHAPE ( 'NONE', 'NONE',  #137 ) ;
#154 = AXIS2_PLACEMENT_3D ( 'NONE', #15, #182, #115 ) ;
#155 = APPROVAL_STATUS ( 'not_yet_approved' ) ;
#156 = EDGE_CURVE ( 'NONE', #164, #164, #140, .T. ) ;
#157 = CARTESIAN_POINT ( 'NONE',  ( 0.0000000000000000000, 0.0000000000000000000, 0.0000000000000000000 ) ) ;
#158 = APPROVAL_STATUS ( 'not_yet_approved' ) ;
#159 = AXIS2_PLACEMENT_3D ( 'NONE', #185, #223, #17 ) ;
#160 = DIRECTION ( 'NONE',  ( 4.697390108261560452E-31, 1.000000000000000000, 1.322197771323788595E-16 ) ) ;
#161 = ORIENTED_EDGE ( 'NONE', *, *, #45, .T. ) ;
#162 = EDGE_LOOP ( 'NONE', ( #141 ) ) ;
#163 = EDGE_CURVE ( 'NONE', #129, #129, #70, .T. ) ;
#164 = VERTEX_POINT ( 'NONE', #63 ) ;
#165 = CONICAL_SURFACE ( 'NONE', #218, 0.6500000000000000222, 0.7853981633974510546 ) ;
#166 = CARTESIAN_POINT ( 'NONE',  ( 2.199633243471174014E-14, 0.4099999999999997535, 6.299999999999999822 ) ) ;
#167 = FACE_OUTER_BOUND ( 'NONE', #108, .T. ) ;
#168 =( LENGTH_UNIT ( ) NAMED_UNIT ( * ) SI_UNIT ( .MILLI., .METRE. ) );
#169 = ADVANCED_BREP_SHAPE_REPRESENTATION ( '957040', ( #201, #127, #125 ), #99 ) ;
#170 = FACE_BOUND ( 'NONE', #95, .T. ) ;
#171 = CALENDAR_DATE ( 2021, 8, 10 ) ;
#172 = PERSON_AND_ORGANIZATION ( #222, #204 ) ;
#173 = AXIS2_PLACEMENT_3D ( 'NONE', #102, #64, #110 ) ;
#174 = DIRECTION ( 'NONE',  ( 0.0000000000000000000, 0.0000000000000000000, 1.000000000000000000 ) ) ;
#175 = COORDINATED_UNIVERSAL_TIME_OFFSET ( 1, 0, .AHEAD. ) ;
#176 = ADVANCED_FACE ( 'NONE', ( #27 ), #101, .F. ) ;
#177 = ORIENTED_EDGE ( 'NONE', *, *, #187, .T. ) ;
#178 = ORIENTED_EDGE ( 'NONE', *, *, #156, .T. ) ;
#179 = AXIS2_PLACEMENT_3D ( 'NONE', #79, #143, #62 ) ;
#180 = LOCAL_TIME ( 7, 54, 10.00000000000000000, #190 ) ;
#181 = ORIENTED_EDGE ( 'NONE', *, *, #163, .F. ) ;
#182 = DIRECTION ( 'NONE',  ( -3.491481338843133355E-15, 1.224646799147353207E-16, -1.000000000000000000 ) ) ;
#183 = VERTEX_POINT ( 'NONE', #166 ) ;
#184 = DIRECTION ( 'NONE',  ( -3.491481338843133355E-15, 1.224646799147353207E-16, -1.000000000000000000 ) ) ;
#185 = CARTESIAN_POINT ( 'NONE',  ( 2.199633243471174014E-14, 3.074507554456800775E-33, 6.299999999999999822 ) ) ;
#186 = CARTESIAN_POINT ( 'NONE',  ( 8.264811532491793883E-16, -2.898905652514772676E-17, 0.2367136103677487946 ) ) ;
#187 = EDGE_CURVE ( 'NONE', #183, #183, #112, .T. ) ;
#188 = CLOSED_SHELL ( 'NONE', ( #72, #86, #212 ) ) ;
#189 = PERSON_AND_ORGANIZATION_ROLE ( 'design_supplier' ) ;
#190 = COORDINATED_UNIVERSAL_TIME_OFFSET ( 1, 0, .AHEAD. ) ;
#191 = ADVANCED_FACE ( 'NONE', ( #167, #170 ), #165, .T. ) ;
#192 = DATE_AND_TIME ( #194, #208 ) ;
#193 = UNCERTAINTY_MEASURE_WITH_UNIT (LENGTH_MEASURE( 1.000000000000000082E-05 ), #168, 'distance_accuracy_value', 'NONE');
#194 = CALENDAR_DATE ( 2021, 8, 10 ) ;
#195 = DATE_AND_TIME ( #171, #9 ) ;
#196 = ORIENTED_EDGE ( 'NONE', *, *, #45, .F. ) ;
#197 = CIRCLE ( 'NONE', #38, 0.4099999999999991984 ) ;
#198 = EDGE_LOOP ( 'NONE', ( #177 ) ) ;
#199 = APPROVAL_PERSON_ORGANIZATION ( #50, #41, #4 ) ;
#200 = CARTESIAN_POINT ( 'NONE',  ( 8.264811532491793883E-16, -2.898905652514772676E-17, 0.2367136103677487946 ) ) ;
#201 = MANIFOLD_SOLID_BREP ( 'Corps-Déplacer/Copier1[1]', #121 ) ;
#202 = CARTESIAN_POINT ( 'NONE',  ( 1.043952920314096810E-13, 0.7499999999999962252, 29.89999999999999858 ) ) ;
#203 = DIRECTION ( 'NONE',  ( -3.491481338843133355E-15, 1.224646799147353207E-16, -1.000000000000000000 ) ) ;
#204 = ORGANIZATION ( 'UNSPECIFIED', 'UNSPECIFIED', '' ) ;
#205 = DIRECTION ( 'NONE',  ( 4.275831445896958607E-31, 1.000000000000000000, 1.224646799147353207E-16 ) ) ;
#206 = DIRECTION ( 'NONE',  ( 0.0000000000000000000, 1.000000000000000000, 0.0000000000000000000 ) ) ;
#207 = FACE_OUTER_BOUND ( 'NONE', #96, .T. ) ;
#208 = LOCAL_TIME ( 7, 54, 10.00000000000000000, #119 ) ;
#209 = SECURITY_CLASSIFICATION ( '', '', #136 ) ;
#210 = COORDINATED_UNIVERSAL_TIME_OFFSET ( 1, 0, .AHEAD. ) ;
#211 = CALENDAR_DATE ( 2021, 8, 10 ) ;
#212 = ADVANCED_FACE ( 'NONE', ( #47 ), #151, .T. ) ;
#213 = FACE_OUTER_BOUND ( 'NONE', #42, .T. ) ;
#214 = AXIS2_PLACEMENT_3D ( 'NONE', #46, #100, #206 ) ;
#215 = CC_DESIGN_SECURITY_CLASSIFICATION ( #209, ( #51 ) ) ;
#216 = CC_DESIGN_PERSON_AND_ORGANIZATION_ASSIGNMENT ( #135, #189, ( #51 ) ) ;
#217 = ORIENTED_EDGE ( 'NONE', *, *, #97, .T. ) ;
#218 = AXIS2_PLACEMENT_3D ( 'NONE', #144, #87, #113 ) ;
#219 = DIRECTION ( 'NONE',  ( 3.491481338843133355E-15, -1.224646799147353207E-16, 1.000000000000000000 ) ) ;
#220 = CARTESIAN_POINT ( 'NONE',  ( 1.047444401652940007E-13, -3.673940397442059178E-15, 30.00000000000000000 ) ) ;
#221 = AXIS2_PLACEMENT_3D ( 'NONE', #30, #219, #68 ) ;
#222 = PERSON ( 'UNSPECIFIED', 'UNSPECIFIED', 'UNSPECIFIED', ('UNSPECIFIED'), ('UNSPECIFIED'), ('UNSPECIFIED') ) ;
#223 = DIRECTION ( 'NONE',  ( 3.491481338843133355E-15, -1.224646799147353207E-16, 1.000000000000000000 ) ) ;
ENDSEC;
END-ISO-10303-21;
