ISO-10303-21;
HEADER;
FILE_DESCRIPTION (( 'STEP AP214' ),
    '1' );
FILE_NAME ('957037.step',
    '2024-04-04T13:05:44',
    ( '' ),
    ( '' ),
    'SwSTEP 2.0',
    'SolidWorks 2022',
    '' );
FILE_SCHEMA (( 'AUTOMOTIVE_DESIGN' ));
ENDSEC;

DATA;
#1 = DIRECTION ( 'NONE',  ( 1.000000000000000000, 0.000000000000000000, -3.504491870660216954E-15 ) ) ;
#2 = CONICAL_SURFACE ( 'NONE', #121, 4.950000000000000178, 0.3450620389298061363 ) ;
#3 = VECTOR ( 'NONE', #135, 1000.000000000000114 ) ;
#4 = FILL_AREA_STYLE ('',( #31 ) ) ;
#5 = DIRECTION ( 'NONE',  ( -4.275831445896958607E-31, -1.000000000000000000, -1.224646799147353207E-16 ) ) ;
#6 = EDGE_LOOP ( 'NONE', ( #177, #202, #313, #92 ) ) ;
#7 = CONICAL_SURFACE ( 'NONE', #54, 4.950000000000000178, 0.3450620389298061363 ) ;
#8 = CARTESIAN_POINT ( 'NONE',  ( 1.710825856033135723E-13, 4.999999999999986677, 49.00000000000000711 ) ) ;
#9 = ADVANCED_FACE ( 'NONE', ( #35 ), #320, .T. ) ;
#10 = DIRECTION ( 'NONE',  ( 3.491481338843133355E-15, -0.000000000000000000, 1.000000000000000000 ) ) ;
#11 = CARTESIAN_POINT ( 'NONE',  ( 3.491481338843133986E-14, 0.000000000000000000, 10.00000000000000178 ) ) ;
#12 = CARTESIAN_POINT ( 'NONE',  ( -2.137915722948479303E-31, 4.950000000000000178, -6.123233995736767268E-17 ) ) ;
#13 = CONICAL_SURFACE ( 'NONE', #198, 4.999999999999992895, 0.7853981633974517207 ) ;
#14 = FACE_OUTER_BOUND ( 'NONE', #85, .T. ) ;
#15 = PLANE ( 'NONE',  #290 ) ;
#16 = SURFACE_SIDE_STYLE ('',( #218 ) ) ;
#17 = EDGE_CURVE ( 'NONE', #178, #305, #295, .T. ) ;
#18 = VECTOR ( 'NONE', #88, 1000.000000000000000 ) ;
#19 = ORIENTED_EDGE ( 'NONE', *, *, #63, .T. ) ;
#20 = UNCERTAINTY_MEASURE_WITH_UNIT (LENGTH_MEASURE( 1.000000000000000082E-05 ), #192, 'distance_accuracy_value', 'NONE');
#21 = ADVANCED_FACE ( 'NONE', ( #267 ), #28, .T. ) ;
#22 = CARTESIAN_POINT ( 'NONE',  ( 3.515765337135238828E-14, -4.950000000000001066, 10.00000000000000178 ) ) ;
#23 = SURFACE_STYLE_FILL_AREA ( #102 ) ;
#24 = ORIENTED_EDGE ( 'NONE', *, *, #122, .T. ) ;
#25 = CARTESIAN_POINT ( 'NONE',  ( 1.710825856033135723E-13, -6.000769315822031726E-15, 49.00000000000000711 ) ) ;
#26 = CIRCLE ( 'NONE', #239, 4.950000000000000178 ) ;
#27 = CARTESIAN_POINT ( 'NONE',  ( 1.038538628783671392E-13, -4.999999999999991118, 10.13910427085457044 ) ) ;
#28 = CYLINDRICAL_SURFACE ( 'NONE', #93, 4.999999999999992895 ) ;
#29 = DIRECTION ( 'NONE',  ( 1.000000000000000000, 0.000000000000000000, 0.000000000000000000 ) ) ;
#30 = ORIENTED_EDGE ( 'NONE', *, *, #168, .T. ) ;
#31 = FILL_AREA_STYLE_COLOUR ( '', #327 ) ;
#32 = COLOUR_RGB ( '',1.000000000000000000, 1.000000000000000000, 1.000000000000000000 ) ;
#33 = ORIENTED_EDGE ( 'NONE', *, *, #56, .T. ) ;
#34 = DIRECTION ( 'NONE',  ( 1.000000000000000000, 0.000000000000000000, -3.491481338843133355E-15 ) ) ;
#35 = FACE_OUTER_BOUND ( 'NONE', #339, .T. ) ;
#36 = CYLINDRICAL_SURFACE ( 'NONE', #67, 4.949999999999999289 ) ;
#37 = APPLICATION_PROTOCOL_DEFINITION ( 'draft international standard', 'automotive_design', 1998, #205 ) ;
#38 = CARTESIAN_POINT ( 'NONE',  ( 3.491481338843133986E-14, -1.224646799147353454E-15, 10.00000000000000178 ) ) ;
#39 = LINE ( 'NONE', #8, #207 ) ;
#40 = VECTOR ( 'NONE', #119, 1000.000000000000000 ) ;
#41 = CARTESIAN_POINT ( 'NONE',  ( 1.745740669421566678E-13, -6.123233995736766085E-15, 50.00000000000000000 ) ) ;
#42 = DIRECTION ( 'NONE',  ( -3.491481338843133355E-15, 1.224646799147353207E-16, -1.000000000000000000 ) ) ;
#43 = FILL_AREA_STYLE ('',( #98 ) ) ;
#44 =( LENGTH_UNIT ( ) NAMED_UNIT ( * ) SI_UNIT ( .MILLI., .METRE. ) );
#45 = CIRCLE ( 'NONE', #279, 3.999999999999992450 ) ;
#46 = DIRECTION ( 'NONE',  ( 3.491481338843133355E-15, -0.000000000000000000, 1.000000000000000000 ) ) ;
#47 = ORIENTED_EDGE ( 'NONE', *, *, #125, .T. ) ;
#48 = AXIS2_PLACEMENT_3D ( 'NONE', #58, #89, #216 ) ;
#49 =( NAMED_UNIT ( * ) PLANE_ANGLE_UNIT ( ) SI_UNIT ( $, .RADIAN. ) );
#50 = CARTESIAN_POINT ( 'NONE',  ( 1.032415394787935013E-13, 4.999999999999986677, 49.00000000000000711 ) ) ;
#51 =( NAMED_UNIT ( * ) SI_UNIT ( $, .STERADIAN. ) SOLID_ANGLE_UNIT ( ) );
#52 = ORIENTED_EDGE ( 'NONE', *, *, #300, .F. ) ;
#53 = ADVANCED_FACE ( 'NONE', ( #244 ), #163, .T. ) ;
#54 = AXIS2_PLACEMENT_3D ( 'NONE', #251, #200, #227 ) ;
#55 = EDGE_LOOP ( 'NONE', ( #322, #30 ) ) ;
#56 = EDGE_CURVE ( 'NONE', #305, #285, #321, .T. ) ;
#57 = ORIENTED_EDGE ( 'NONE', *, *, #241, .T. ) ;
#58 = CARTESIAN_POINT ( 'NONE',  ( 0.000000000000000000, 0.000000000000000000, 0.000000000000000000 ) ) ;
#59 = ORIENTED_EDGE ( 'NONE', *, *, #332, .F. ) ;
#60 = CIRCLE ( 'NONE', #74, 4.999999999999990230 ) ;
#61 = ADVANCED_FACE ( 'NONE', ( #315 ), #114, .T. ) ;
#62 = ORIENTED_EDGE ( 'NONE', *, *, #149, .T. ) ;
#63 = EDGE_CURVE ( 'NONE', #185, #285, #319, .T. ) ;
#64 = CARTESIAN_POINT ( 'NONE',  ( 3.552101355400928011E-14, 4.949999999999999289, 10.00000000000000178 ) ) ;
#65 = EDGE_LOOP ( 'NONE', ( #94, #255 ) ) ;
#66 = MANIFOLD_SOLID_BREP ( 'Corps-Déplacer/Copier1[1]', #299 ) ;
#67 = AXIS2_PLACEMENT_3D ( 'NONE', #75, #10, #191 ) ;
#68 =( GEOMETRIC_REPRESENTATION_CONTEXT ( 3 ) GLOBAL_UNCERTAINTY_ASSIGNED_CONTEXT ( ( #229 ) ) GLOBAL_UNIT_ASSIGNED_CONTEXT ( ( #44, #49, #256 ) ) REPRESENTATION_CONTEXT ( 'NONE', 'WORKASPACE' ) );
#69 = CARTESIAN_POINT ( 'NONE',  ( 3.491481338843133986E-14, -1.224646799147353454E-15, 10.00000000000000178 ) ) ;
#70 = PRODUCT_DEFINITION_CONTEXT ( 'detailed design', #205, 'design' ) ;
#71 = PLANE ( 'NONE',  #190 ) ;
#72 = CARTESIAN_POINT ( 'NONE',  ( 3.576691515392819627E-14, 4.949999999999999289, 10.00000000000000178 ) ) ;
#73 = ADVANCED_FACE ( 'NONE', ( #80 ), #13, .T. ) ;
#74 = AXIS2_PLACEMENT_3D ( 'NONE', #324, #100, #298 ) ;
#75 = CARTESIAN_POINT ( 'NONE',  ( 3.491481338843133986E-14, 0.000000000000000000, 10.00000000000000178 ) ) ;
#76 = CARTESIAN_POINT ( 'NONE',  ( 4.950000000000033928, 0.000000000000000000, 9.999999999999984013 ) ) ;
#77 = SURFACE_SIDE_STYLE ('',( #23 ) ) ;
#78 = ORIENTED_EDGE ( 'NONE', *, *, #125, .F. ) ;
#79 = SURFACE_STYLE_USAGE ( .BOTH. , #77 ) ;
#80 = FACE_OUTER_BOUND ( 'NONE', #212, .T. ) ;
#81 = CIRCLE ( 'NONE', #259, 4.950000000000000178 ) ;
#82 = APPLICATION_CONTEXT ( 'automotive_design' ) ;
#83 = VERTEX_POINT ( 'NONE', #196 ) ;
#84 = CARTESIAN_POINT ( 'NONE',  ( 3.491481338843133986E-14, 0.000000000000000000, 10.00000000000000178 ) ) ;
#85 = EDGE_LOOP ( 'NONE', ( #57, #47 ) ) ;
#86 = CIRCLE ( 'NONE', #116, 3.999999999999992450 ) ;
#87 = DIRECTION ( 'NONE',  ( -3.491481338843133355E-15, 1.224646799147353207E-16, -1.000000000000000000 ) ) ;
#88 = DIRECTION ( 'NONE',  ( -3.491481338843133355E-15, 1.224646799147353207E-16, -1.000000000000000000 ) ) ;
#89 = DIRECTION ( 'NONE',  ( -3.491481338843133355E-15, 1.224646799147353207E-16, -1.000000000000000000 ) ) ;
#90 = EDGE_CURVE ( 'NONE', #195, #112, #26, .T. ) ;
#91 = CARTESIAN_POINT ( 'NONE',  ( 6.123233995736736700E-16, -4.999999999999992895, -6.123233995736778115E-16 ) ) ;
#92 = ORIENTED_EDGE ( 'NONE', *, *, #214, .F. ) ;
#93 = AXIS2_PLACEMENT_3D ( 'NONE', #288, #140, #262 ) ;
#94 = ORIENTED_EDGE ( 'NONE', *, *, #296, .T. ) ;
#95 = DIRECTION ( 'NONE',  ( -3.491481338843133355E-15, 1.224646799147350249E-16, -1.000000000000000000 ) ) ;
#96 = PRESENTATION_LAYER_ASSIGNMENT (  '', '', ( #104 ) ) ;
#97 = PRESENTATION_STYLE_ASSIGNMENT (( #329 ) ) ;
#98 = FILL_AREA_STYLE_COLOUR ( '', #32 ) ;
#99 = AXIS2_PLACEMENT_3D ( 'NONE', #150, #334, #220 ) ;
#100 = DIRECTION ( 'NONE',  ( -3.491481338843133355E-15, 1.224646799147353207E-16, -1.000000000000000000 ) ) ;
#101 = CARTESIAN_POINT ( 'NONE',  ( 0.000000000000000000, 0.000000000000000000, 0.000000000000000000 ) ) ;
#102 = FILL_AREA_STYLE ('',( #343 ) ) ;
#103 = LINE ( 'NONE', #308, #157 ) ;
#104 = STYLED_ITEM ( 'NONE', ( #97 ), #280 ) ;
#105 = LINE ( 'NONE', #108, #40 ) ;
#106 = EDGE_LOOP ( 'NONE', ( #263, #333, #165, #59 ) ) ;
#107 = EDGE_LOOP ( 'NONE', ( #278, #110, #162, #258 ) ) ;
#108 = CARTESIAN_POINT ( 'NONE',  ( 4.950000000000033928, 0.000000000000000000, 9.999999999999984013 ) ) ;
#109 = CIRCLE ( 'NONE', #275, 4.999999999999992895 ) ;
#110 = ORIENTED_EDGE ( 'NONE', *, *, #204, .T. ) ;
#111 = CLOSED_SHELL ( 'NONE', ( #61, #173, #265, #237 ) ) ;
#112 = VERTEX_POINT ( 'NONE', #245 ) ;
#113 = ADVANCED_FACE ( 'NONE', ( #14 ), #302, .T. ) ;
#114 = CYLINDRICAL_SURFACE ( 'NONE', #141, 4.949999999999999289 ) ;
#115 = CARTESIAN_POINT ( 'NONE',  ( 3.491481338843133986E-14, -4.950000000000001066, 10.00000000000000178 ) ) ;
#116 = AXIS2_PLACEMENT_3D ( 'NONE', #303, #325, #169 ) ;
#117 = MECHANICAL_DESIGN_GEOMETRIC_PRESENTATION_REPRESENTATION (  '', ( #104 ), #307 ) ;
#118 = AXIS2_PLACEMENT_3D ( 'NONE', #161, #291, #29 ) ;
#119 = DIRECTION ( 'NONE',  ( 3.491481338843133355E-15, -0.000000000000000000, 1.000000000000000000 ) ) ;
#120 = DIRECTION ( 'NONE',  ( 0.000000000000000000, 1.000000000000000000, 0.000000000000000000 ) ) ;
#121 = AXIS2_PLACEMENT_3D ( 'NONE', #145, #170, #146 ) ;
#122 = EDGE_CURVE ( 'NONE', #112, #195, #248, .T. ) ;
#123 = UNCERTAINTY_MEASURE_WITH_UNIT (LENGTH_MEASURE( 1.000000000000000082E-05 ), #153, 'distance_accuracy_value', 'NONE');
#124 = CARTESIAN_POINT ( 'NONE',  ( 1.710825856033135723E-13, -6.000769315822031726E-15, 49.00000000000000711 ) ) ;
#125 = EDGE_CURVE ( 'NONE', #126, #178, #81, .T. ) ;
#126 = VERTEX_POINT ( 'NONE', #72 ) ;
#127 = ORIENTED_EDGE ( 'NONE', *, *, #254, .F. ) ;
#128 = DIRECTION ( 'NONE',  ( 1.000000000000000000, 0.000000000000000000, -3.504491870660216954E-15 ) ) ;
#129 = ORIENTED_EDGE ( 'NONE', *, *, #323, .T. ) ;
#130 = CIRCLE ( 'NONE', #270, 4.950000000000000178 ) ;
#131 = DIRECTION ( 'NONE',  ( -3.491481338843133355E-15, 1.224646799147350249E-16, -1.000000000000000000 ) ) ;
#132 = CARTESIAN_POINT ( 'NONE',  ( 1.733794173323514029E-13, -3.999999999999998224, 50.00000000000000000 ) ) ;
#133 = DIRECTION ( 'NONE',  ( 0.000000000000000000, 1.000000000000000000, 0.000000000000000000 ) ) ;
#134 = CARTESIAN_POINT ( 'NONE',  ( 0.000000000000000000, 0.000000000000000000, 0.000000000000000000 ) ) ;
#135 = DIRECTION ( 'NONE',  ( 3.285674118869277199E-15, -0.3382550599108699041, 0.9410544694355867934 ) ) ;
#136 = PRESENTATION_LAYER_ASSIGNMENT (  '', '', ( #297 ) ) ;
#137 = DIRECTION ( 'NONE',  ( 3.491481338843133355E-15, -1.224646799147353207E-16, 1.000000000000000000 ) ) ;
#138 = SURFACE_STYLE_FILL_AREA ( #4 ) ;
#139 = PRODUCT_CONTEXT ( 'NONE', #82, 'mechanical' ) ;
#140 = DIRECTION ( 'NONE',  ( -3.491481338843133355E-15, 1.224646799147353207E-16, -1.000000000000000000 ) ) ;
#141 = AXIS2_PLACEMENT_3D ( 'NONE', #238, #236, #1 ) ;
#142 = DIRECTION ( 'NONE',  ( 0.000000000000000000, 1.000000000000000000, 0.000000000000000000 ) ) ;
#143 = PRESENTATION_STYLE_ASSIGNMENT (( #328 ) ) ;
#144 = CARTESIAN_POINT ( 'NONE',  ( 1.716949090028872228E-13, -4.999999999999999112, 49.00000000000000711 ) ) ;
#145 = CARTESIAN_POINT ( 'NONE',  ( 3.491481338843133986E-14, -1.224646799147353454E-15, 10.00000000000000178 ) ) ;
#146 = DIRECTION ( 'NONE',  ( 0.000000000000000000, -1.000000000000000000, 0.000000000000000000 ) ) ;
#147 = CIRCLE ( 'NONE', #231, 4.999999999999992895 ) ;
#148 = DIRECTION ( 'NONE',  ( -2.382254525458707214E-15, -0.7071067811865499042, -0.7071067811865452413 ) ) ;
#149 = EDGE_CURVE ( 'NONE', #306, #182, #276, .T. ) ;
#150 = CARTESIAN_POINT ( 'NONE',  ( 3.491481338843133986E-14, 4.949999999999999289, 10.00000000000000178 ) ) ;
#151 = DIRECTION ( 'NONE',  ( 1.000000000000000000, 0.000000000000000000, -3.504491870660216954E-15 ) ) ;
#152 = VECTOR ( 'NONE', #166, 1000.000000000000114 ) ;
#153 =( LENGTH_UNIT ( ) NAMED_UNIT ( * ) SI_UNIT ( .MILLI., .METRE. ) );
#154 = ORIENTED_EDGE ( 'NONE', *, *, #296, .F. ) ;
#155 = UNCERTAINTY_MEASURE_WITH_UNIT (LENGTH_MEASURE( 1.000000000000000082E-05 ), #197, 'distance_accuracy_value', 'NONE');
#156 = APPLICATION_PROTOCOL_DEFINITION ( 'draft international standard', 'automotive_design', 1998, #82 ) ;
#157 = VECTOR ( 'NONE', #176, 1000.000000000000000 ) ;
#158 = CARTESIAN_POINT ( 'NONE',  ( 3.540049335427344300E-14, 4.999999999999989342, 10.13910427085457044 ) ) ;
#159 = PRODUCT_DEFINITION_SHAPE ( 'NONE', 'NONE',  #336 ) ;
#160 = DIRECTION ( 'NONE',  ( -3.491481338843133355E-15, 1.224646799147353207E-16, -1.000000000000000000 ) ) ;
#161 = CARTESIAN_POINT ( 'NONE',  ( 0.000000000000000000, 0.000000000000000000, 0.000000000000000000 ) ) ;
#162 = ORIENTED_EDGE ( 'NONE', *, *, #269, .F. ) ;
#163 = PLANE ( 'NONE',  #193 ) ;
#164 = AXIS2_PLACEMENT_3D ( 'NONE', #11, #311, #151 ) ;
#165 = ORIENTED_EDGE ( 'NONE', *, *, #172, .T. ) ;
#166 = DIRECTION ( 'NONE',  ( 3.327098416510801809E-15, 0.3382550599108696820, 0.9410544694355867934 ) ) ;
#167 = CIRCLE ( 'NONE', #164, 4.949999999999999289 ) ;
#168 = EDGE_CURVE ( 'NONE', #306, #277, #86, .T. ) ;
#169 = DIRECTION ( 'NONE',  ( 0.000000000000000000, -1.000000000000000000, 0.000000000000000000 ) ) ;
#170 = DIRECTION ( 'NONE',  ( 3.491481338843133355E-15, -1.224646799147353207E-16, 1.000000000000000000 ) ) ;
#171 = MECHANICAL_DESIGN_GEOMETRIC_PRESENTATION_REPRESENTATION (  '', ( #297 ), #224 ) ;
#172 = EDGE_CURVE ( 'NONE', #112, #228, #105, .T. ) ;
#173 = ADVANCED_FACE ( 'NONE', ( #289 ), #36, .T. ) ;
#174 = ORIENTED_EDGE ( 'NONE', *, *, #204, .F. ) ;
#175 = AXIS2_PLACEMENT_3D ( 'NONE', #101, #301, #331 ) ;
#176 = DIRECTION ( 'NONE',  ( 3.491481338843133355E-15, -0.000000000000000000, 1.000000000000000000 ) ) ;
#177 = ORIENTED_EDGE ( 'NONE', *, *, #149, .F. ) ;
#178 = VERTEX_POINT ( 'NONE', #22 ) ;
#179 = VECTOR ( 'NONE', #148, 1000.000000000000114 ) ;
#180 = MECHANICAL_DESIGN_GEOMETRIC_PRESENTATION_REPRESENTATION (  '', ( #186 ), #68 ) ;
#181 = ORIENTED_EDGE ( 'NONE', *, *, #172, .F. ) ;
#182 = VERTEX_POINT ( 'NONE', #281 ) ;
#183 = PRODUCT ( '957037', '957037', '', ( #139 ) ) ;
#184 = ORIENTED_EDGE ( 'NONE', *, *, #90, .F. ) ;
#185 = VERTEX_POINT ( 'NONE', #50 ) ;
#186 = STYLED_ITEM ( 'NONE', ( #234 ), #211 ) ;
#187 = DIRECTION ( 'NONE',  ( 0.000000000000000000, 1.000000000000000000, 0.000000000000000000 ) ) ;
#188 = LINE ( 'NONE', #64, #152 ) ;
#189 = ORIENTED_EDGE ( 'NONE', *, *, #56, .F. ) ;
#190 = AXIS2_PLACEMENT_3D ( 'NONE', #217, #330, #274 ) ;
#191 = DIRECTION ( 'NONE',  ( 1.000000000000000000, 0.000000000000000000, -3.504491870660216954E-15 ) ) ;
#192 =( LENGTH_UNIT ( ) NAMED_UNIT ( * ) SI_UNIT ( .MILLI., .METRE. ) );
#193 = AXIS2_PLACEMENT_3D ( 'NONE', #240, #137, #5 ) ;
#194 = FACE_OUTER_BOUND ( 'NONE', #6, .T. ) ;
#195 = VERTEX_POINT ( 'NONE', #233 ) ;
#196 = CARTESIAN_POINT ( 'NONE',  ( -4.949999999999964650, 6.062001655779397525E-16, 10.00000000000001954 ) ) ;
#197 =( LENGTH_UNIT ( ) NAMED_UNIT ( * ) SI_UNIT ( .MILLI., .METRE. ) );
#198 = AXIS2_PLACEMENT_3D ( 'NONE', #264, #95, #187 ) ;
#199 =( NAMED_UNIT ( * ) PLANE_ANGLE_UNIT ( ) SI_UNIT ( $, .RADIAN. ) );
#200 = DIRECTION ( 'NONE',  ( 3.491481338843133355E-15, -1.224646799147353207E-16, 1.000000000000000000 ) ) ;
#201 = ORIENTED_EDGE ( 'NONE', *, *, #254, .T. ) ;
#202 = ORIENTED_EDGE ( 'NONE', *, *, #273, .F. ) ;
#203 = DIRECTION ( 'NONE',  ( 3.491481338843133355E-15, -0.000000000000000000, 1.000000000000000000 ) ) ;
#204 = EDGE_CURVE ( 'NONE', #182, #305, #342, .T. ) ;
#205 = APPLICATION_CONTEXT ( 'automotive_design' ) ;
#206 = EDGE_LOOP ( 'NONE', ( #24, #129, #154, #181 ) ) ;
#207 = VECTOR ( 'NONE', #272, 1000.000000000000114 ) ;
#208 = CONICAL_SURFACE ( 'NONE', #219, 4.999999999999992895, 0.7853981633974517207 ) ;
#209 = SHAPE_DEFINITION_REPRESENTATION ( #159, #211 ) ;
#210 = CARTESIAN_POINT ( 'NONE',  ( 3.540049335427344300E-14, -1.241682159152330795E-15, 10.13910427085457044 ) ) ;
#211 = ADVANCED_BREP_SHAPE_REPRESENTATION ( '957037', ( #66, #280, #118 ), #260 ) ;
#212 = EDGE_LOOP ( 'NONE', ( #242, #62, #52, #292 ) ) ;
#213 = SURFACE_SIDE_STYLE ('',( #138 ) ) ;
#214 = EDGE_CURVE ( 'NONE', #182, #185, #109, .T. ) ;
#215 = DIRECTION ( 'NONE',  ( -3.491481338843133355E-15, 1.224646799147353207E-16, -1.000000000000000000 ) ) ;
#216 = DIRECTION ( 'NONE',  ( 4.275831445896958607E-31, 1.000000000000000000, 1.224646799147353207E-16 ) ) ;
#217 = CARTESIAN_POINT ( 'NONE',  ( 3.491481338843133986E-14, 4.949999999999999289, 10.00000000000000178 ) ) ;
#218 = SURFACE_STYLE_FILL_AREA ( #43 ) ;
#219 = AXIS2_PLACEMENT_3D ( 'NONE', #124, #131, #337 ) ;
#220 = DIRECTION ( 'NONE',  ( 4.275831445896958607E-31, 1.000000000000000000, 1.224646799147353207E-16 ) ) ;
#221 = EDGE_CURVE ( 'NONE', #277, #185, #39, .T. ) ;
#222 = DIRECTION ( 'NONE',  ( -1.332267629550188006E-14, -1.000000000000000000, 0.000000000000000000 ) ) ;
#223 = ORIENTED_EDGE ( 'NONE', *, *, #269, .T. ) ;
#224 =( GEOMETRIC_REPRESENTATION_CONTEXT ( 3 ) GLOBAL_UNCERTAINTY_ASSIGNED_CONTEXT ( ( #155 ) ) GLOBAL_UNIT_ASSIGNED_CONTEXT ( ( #197, #199, #314 ) ) REPRESENTATION_CONTEXT ( 'NONE', 'WORKASPACE' ) );
#225 = PRODUCT_DEFINITION_FORMATION_WITH_SPECIFIED_SOURCE ( 'ANY', '', #183, .NOT_KNOWN. ) ;
#226 = DIRECTION ( 'NONE',  ( 1.421085471520200687E-14, -1.000000000000000000, 0.000000000000000000 ) ) ;
#227 = DIRECTION ( 'NONE',  ( 0.000000000000000000, -1.000000000000000000, 0.000000000000000000 ) ) ;
#228 = VERTEX_POINT ( 'NONE', #76 ) ;
#229 = UNCERTAINTY_MEASURE_WITH_UNIT (LENGTH_MEASURE( 1.000000000000000082E-05 ), #44, 'distance_accuracy_value', 'NONE');
#230 =( NAMED_UNIT ( * ) PLANE_ANGLE_UNIT ( ) SI_UNIT ( $, .RADIAN. ) );
#231 = AXIS2_PLACEMENT_3D ( 'NONE', #25, #283, #226 ) ;
#232 = CIRCLE ( 'NONE', #304, 4.949999999999999289 ) ;
#233 = CARTESIAN_POINT ( 'NONE',  ( -4.950000000000001066, 6.062001655779421191E-16, 1.728283262727351642E-14 ) ) ;
#234 = PRESENTATION_STYLE_ASSIGNMENT (( #79 ) ) ;
#235 = EDGE_LOOP ( 'NONE', ( #78, #201, #223, #341 ) ) ;
#236 = DIRECTION ( 'NONE',  ( 3.491481338843133355E-15, -0.000000000000000000, 1.000000000000000000 ) ) ;
#237 = ADVANCED_FACE ( 'NONE', ( #326 ), #15, .F. ) ;
#238 = CARTESIAN_POINT ( 'NONE',  ( 3.491481338843133986E-14, 0.000000000000000000, 10.00000000000000178 ) ) ;
#239 = AXIS2_PLACEMENT_3D ( 'NONE', #134, #203, #293 ) ;
#240 = CARTESIAN_POINT ( 'NONE',  ( 1.745740669421566678E-13, -6.123233995736766085E-15, 50.00000000000000000 ) ) ;
#241 = EDGE_CURVE ( 'NONE', #178, #126, #130, .T. ) ;
#242 = ORIENTED_EDGE ( 'NONE', *, *, #168, .F. ) ;
#243 = DIRECTION ( 'NONE',  ( 3.491481338843133355E-15, -0.000000000000000000, 1.000000000000000000 ) ) ;
#244 = FACE_OUTER_BOUND ( 'NONE', #55, .T. ) ;
#245 = CARTESIAN_POINT ( 'NONE',  ( 4.950000000000000178, 0.000000000000000000, -1.728283262727351011E-14 ) ) ;
#246 = CARTESIAN_POINT ( 'NONE',  ( 1.728283262727351074E-13, 3.999999999999986233, 50.00000000000000000 ) ) ;
#247 = DIRECTION ( 'NONE',  ( 0.000000000000000000, -1.000000000000000000, 0.000000000000000000 ) ) ;
#248 = CIRCLE ( 'NONE', #175, 4.950000000000000178 ) ;
#249 = COLOUR_RGB ( '',1.000000000000000000, 1.000000000000000000, 1.000000000000000000 ) ;
#250 = DIRECTION ( 'NONE',  ( 3.491481338843133355E-15, -1.224646799147353207E-16, 1.000000000000000000 ) ) ;
#251 = CARTESIAN_POINT ( 'NONE',  ( 3.491481338843133986E-14, -1.224646799147353454E-15, 10.00000000000000178 ) ) ;
#252 = EDGE_LOOP ( 'NONE', ( #127, #309, #338, #33 ) ) ;
#253 = VECTOR ( 'NONE', #160, 1000.000000000000000 ) ;
#254 = EDGE_CURVE ( 'NONE', #126, #285, #188, .T. ) ;
#255 = ORIENTED_EDGE ( 'NONE', *, *, #332, .T. ) ;
#256 =( NAMED_UNIT ( * ) SI_UNIT ( $, .STERADIAN. ) SOLID_ANGLE_UNIT ( ) );
#257 =( NAMED_UNIT ( * ) SI_UNIT ( $, .STERADIAN. ) SOLID_ANGLE_UNIT ( ) );
#258 = ORIENTED_EDGE ( 'NONE', *, *, #63, .F. ) ;
#259 = AXIS2_PLACEMENT_3D ( 'NONE', #69, #42, #120 ) ;
#260 =( GEOMETRIC_REPRESENTATION_CONTEXT ( 3 ) GLOBAL_UNCERTAINTY_ASSIGNED_CONTEXT ( ( #123 ) ) GLOBAL_UNIT_ASSIGNED_CONTEXT ( ( #153, #230, #51 ) ) REPRESENTATION_CONTEXT ( 'NONE', 'WORKASPACE' ) );
#261 = ADVANCED_FACE ( 'NONE', ( #294 ), #2, .T. ) ;
#262 = DIRECTION ( 'NONE',  ( 4.275831445896958607E-31, 1.000000000000000000, 1.224646799147353207E-16 ) ) ;
#263 = ORIENTED_EDGE ( 'NONE', *, *, #323, .F. ) ;
#264 = CARTESIAN_POINT ( 'NONE',  ( 1.710825856033135723E-13, -6.000769315822031726E-15, 49.00000000000000711 ) ) ;
#265 = ADVANCED_FACE ( 'NONE', ( #271 ), #71, .F. ) ;
#266 = PRESENTATION_LAYER_ASSIGNMENT (  '', '', ( #186 ) ) ;
#267 = FACE_OUTER_BOUND ( 'NONE', #107, .T. ) ;
#268 = EDGE_LOOP ( 'NONE', ( #284, #184 ) ) ;
#269 = EDGE_CURVE ( 'NONE', #285, #305, #60, .T. ) ;
#270 = AXIS2_PLACEMENT_3D ( 'NONE', #38, #215, #142 ) ;
#271 = FACE_OUTER_BOUND ( 'NONE', #65, .T. ) ;
#272 = DIRECTION ( 'NONE',  ( -2.468850131082256272E-15, 0.7071067811865501263, -0.7071067811865450192 ) ) ;
#273 = EDGE_CURVE ( 'NONE', #277, #306, #45, .T. ) ;
#274 = DIRECTION ( 'NONE',  ( -1.000000000000000000, 0.000000000000000000, 3.491481338843133355E-15 ) ) ;
#275 = AXIS2_PLACEMENT_3D ( 'NONE', #317, #286, #222 ) ;
#276 = LINE ( 'NONE', #144, #179 ) ;
#277 = VERTEX_POINT ( 'NONE', #246 ) ;
#278 = ORIENTED_EDGE ( 'NONE', *, *, #300, .T. ) ;
#279 = AXIS2_PLACEMENT_3D ( 'NONE', #41, #250, #247 ) ;
#280 = MANIFOLD_SOLID_BREP ( 'Corps-Déplacer/Copier1[2]', #111 ) ;
#281 = CARTESIAN_POINT ( 'NONE',  ( 1.038538628783671392E-13, -4.999999999999999112, 49.00000000000000711 ) ) ;
#282 = FACE_OUTER_BOUND ( 'NONE', #235, .T. ) ;
#283 = DIRECTION ( 'NONE',  ( -3.491481338843133355E-15, 1.224646799147350249E-16, -1.000000000000000000 ) ) ;
#284 = ORIENTED_EDGE ( 'NONE', *, *, #122, .F. ) ;
#285 = VERTEX_POINT ( 'NONE', #158 ) ;
#286 = DIRECTION ( 'NONE',  ( -3.491481338843133355E-15, 1.224646799147350249E-16, -1.000000000000000000 ) ) ;
#287 = ORIENTED_EDGE ( 'NONE', *, *, #214, .T. ) ;
#288 = CARTESIAN_POINT ( 'NONE',  ( 0.000000000000000000, 0.000000000000000000, 0.000000000000000000 ) ) ;
#289 = FACE_OUTER_BOUND ( 'NONE', #106, .T. ) ;
#290 = AXIS2_PLACEMENT_3D ( 'NONE', #12, #243, #34 ) ;
#291 = DIRECTION ( 'NONE',  ( 0.000000000000000000, 0.000000000000000000, 1.000000000000000000 ) ) ;
#292 = ORIENTED_EDGE ( 'NONE', *, *, #221, .F. ) ;
#293 = DIRECTION ( 'NONE',  ( 1.000000000000000000, 0.000000000000000000, -3.491481338843133355E-15 ) ) ;
#294 = FACE_OUTER_BOUND ( 'NONE', #252, .T. ) ;
#295 = LINE ( 'NONE', #115, #3 ) ;
#296 = EDGE_CURVE ( 'NONE', #228, #83, #167, .T. ) ;
#297 = STYLED_ITEM ( 'NONE', ( #143 ), #66 ) ;
#298 = DIRECTION ( 'NONE',  ( 0.000000000000000000, 1.000000000000000000, 0.000000000000000000 ) ) ;
#299 = CLOSED_SHELL ( 'NONE', ( #73, #310, #21, #113, #53, #9, #261, #335 ) ) ;
#300 = EDGE_CURVE ( 'NONE', #185, #182, #147, .T. ) ;
#301 = DIRECTION ( 'NONE',  ( 3.491481338843133355E-15, -0.000000000000000000, 1.000000000000000000 ) ) ;
#302 = PLANE ( 'NONE',  #99 ) ;
#303 = CARTESIAN_POINT ( 'NONE',  ( 1.745740669421566678E-13, -6.123233995736766085E-15, 50.00000000000000000 ) ) ;
#304 = AXIS2_PLACEMENT_3D ( 'NONE', #84, #46, #128 ) ;
#305 = VERTEX_POINT ( 'NONE', #27 ) ;
#306 = VERTEX_POINT ( 'NONE', #132 ) ;
#307 =( GEOMETRIC_REPRESENTATION_CONTEXT ( 3 ) GLOBAL_UNCERTAINTY_ASSIGNED_CONTEXT ( ( #20 ) ) GLOBAL_UNIT_ASSIGNED_CONTEXT ( ( #192, #340, #257 ) ) REPRESENTATION_CONTEXT ( 'NONE', 'WORKASPACE' ) );
#308 = CARTESIAN_POINT ( 'NONE',  ( -4.949999999999964650, 6.062001655779397525E-16, 10.00000000000001954 ) ) ;
#309 = ORIENTED_EDGE ( 'NONE', *, *, #241, .F. ) ;
#310 = ADVANCED_FACE ( 'NONE', ( #282 ), #7, .T. ) ;
#311 = DIRECTION ( 'NONE',  ( 3.491481338843133355E-15, -0.000000000000000000, 1.000000000000000000 ) ) ;
#312 = PRODUCT_RELATED_PRODUCT_CATEGORY ( 'part', '', ( #183 ) ) ;
#313 = ORIENTED_EDGE ( 'NONE', *, *, #221, .T. ) ;
#314 =( NAMED_UNIT ( * ) SI_UNIT ( $, .STERADIAN. ) SOLID_ANGLE_UNIT ( ) );
#315 = FACE_OUTER_BOUND ( 'NONE', #206, .T. ) ;
#316 = AXIS2_PLACEMENT_3D ( 'NONE', #210, #87, #133 ) ;
#317 = CARTESIAN_POINT ( 'NONE',  ( 1.710825856033135723E-13, -6.000769315822031726E-15, 49.00000000000000711 ) ) ;
#318 = CARTESIAN_POINT ( 'NONE',  ( 2.137915722948476326E-30, 4.999999999999992895, 6.123233995736757408E-16 ) ) ;
#319 = LINE ( 'NONE', #318, #18 ) ;
#320 = CYLINDRICAL_SURFACE ( 'NONE', #48, 4.999999999999992895 ) ;
#321 = CIRCLE ( 'NONE', #316, 4.999999999999990230 ) ;
#322 = ORIENTED_EDGE ( 'NONE', *, *, #273, .T. ) ;
#323 = EDGE_CURVE ( 'NONE', #195, #83, #103, .T. ) ;
#324 = CARTESIAN_POINT ( 'NONE',  ( 3.540049335427344300E-14, -1.241682159152330795E-15, 10.13910427085457044 ) ) ;
#325 = DIRECTION ( 'NONE',  ( 3.491481338843133355E-15, -1.224646799147353207E-16, 1.000000000000000000 ) ) ;
#326 = FACE_OUTER_BOUND ( 'NONE', #268, .T. ) ;
#327 = COLOUR_RGB ( '',1.000000000000000000, 1.000000000000000000, 1.000000000000000000 ) ;
#328 = SURFACE_STYLE_USAGE ( .BOTH. , #213 ) ;
#329 = SURFACE_STYLE_USAGE ( .BOTH. , #16 ) ;
#330 = DIRECTION ( 'NONE',  ( -3.491481338843133355E-15, 0.000000000000000000, -1.000000000000000000 ) ) ;
#331 = DIRECTION ( 'NONE',  ( 1.000000000000000000, 0.000000000000000000, -3.491481338843133355E-15 ) ) ;
#332 = EDGE_CURVE ( 'NONE', #83, #228, #232, .T. ) ;
#333 = ORIENTED_EDGE ( 'NONE', *, *, #90, .T. ) ;
#334 = DIRECTION ( 'NONE',  ( -3.491481338843133355E-15, 1.224646799147353207E-16, -1.000000000000000000 ) ) ;
#335 = ADVANCED_FACE ( 'NONE', ( #194 ), #208, .T. ) ;
#336 = PRODUCT_DEFINITION ( 'UNKNOWN', '', #225, #70 ) ;
#337 = DIRECTION ( 'NONE',  ( 0.000000000000000000, 1.000000000000000000, 0.000000000000000000 ) ) ;
#338 = ORIENTED_EDGE ( 'NONE', *, *, #17, .T. ) ;
#339 = EDGE_LOOP ( 'NONE', ( #174, #287, #19, #189 ) ) ;
#340 =( NAMED_UNIT ( * ) PLANE_ANGLE_UNIT ( ) SI_UNIT ( $, .RADIAN. ) );
#341 = ORIENTED_EDGE ( 'NONE', *, *, #17, .F. ) ;
#342 = LINE ( 'NONE', #91, #253 ) ;
#343 = FILL_AREA_STYLE_COLOUR ( '', #249 ) ;
ENDSEC;
END-ISO-10303-21;
