ISO-10303-21;
HEADER;
FILE_DESCRIPTION (( 'STEP AP214' ),
    '1' );
FILE_NAME ('957036.step',
    '2024-04-04T13:00:21',
    ( '' ),
    ( '' ),
    'SwSTEP 2.0',
    'SolidWorks 2022',
    '' );
FILE_SCHEMA (( 'AUTOMOTIVE_DESIGN' ));
ENDSEC;

DATA;
#1 = CARTESIAN_POINT ( 'NONE',  ( 3.491481338843133355E-14, -1.224646799147353256E-15, 10.00000000000000000 ) ) ;
#2 = EDGE_LOOP ( 'NONE', ( #171, #290, #36, #233 ) ) ;
#3 = CIRCLE ( 'NONE', #13, 4.950000000000000178 ) ;
#4 = PRODUCT_DEFINITION_CONTEXT ( 'detailed design', #101, 'design' ) ;
#5 =( NAMED_UNIT ( * ) SI_UNIT ( $, .STERADIAN. ) SOLID_ANGLE_UNIT ( ) );
#6 = VERTEX_POINT ( 'NONE', #329 ) ;
#7 = ORIENTED_EDGE ( 'NONE', *, *, #123, .F. ) ;
#8 = MECHANICAL_DESIGN_GEOMETRIC_PRESENTATION_REPRESENTATION (  '', ( #174 ), #168 ) ;
#9 = VERTEX_POINT ( 'NONE', #310 ) ;
#10 = DIRECTION ( 'NONE',  ( 4.275831445896958607E-31, 1.000000000000000000, 1.224646799147353207E-16 ) ) ;
#11 = EDGE_CURVE ( 'NONE', #9, #32, #153, .T. ) ;
#12 = CIRCLE ( 'NONE', #68, 3.999999999999992450 ) ;
#13 = AXIS2_PLACEMENT_3D ( 'NONE', #220, #76, #127 ) ;
#14 = CARTESIAN_POINT ( 'NONE',  ( -4.949999999999964650, 6.062001655779397525E-16, 10.00000000000001776 ) ) ;
#15 = EDGE_CURVE ( 'NONE', #172, #63, #82, .T. ) ;
#16 = DIRECTION ( 'NONE',  ( 3.491481338843133355E-15, -1.224646799147353207E-16, 1.000000000000000000 ) ) ;
#17 = SURFACE_STYLE_FILL_AREA ( #256 ) ;
#18 = PRESENTATION_LAYER_ASSIGNMENT (  '', '', ( #174 ) ) ;
#19 = CARTESIAN_POINT ( 'NONE',  ( 1.710825856033135723E-13, -6.000769315822031726E-15, 49.00000000000000711 ) ) ;
#20 = FACE_OUTER_BOUND ( 'NONE', #90, .T. ) ;
#21 = CARTESIAN_POINT ( 'NONE',  ( 3.540049335427348087E-14, -1.241682159152332176E-15, 10.13910427085458110 ) ) ;
#22 = EDGE_CURVE ( 'NONE', #32, #63, #145, .T. ) ;
#23 = CARTESIAN_POINT ( 'NONE',  ( 0.000000000000000000, 0.000000000000000000, 0.000000000000000000 ) ) ;
#24 = PRESENTATION_LAYER_ASSIGNMENT (  '', '', ( #162 ) ) ;
#25 = VECTOR ( 'NONE', #280, 1000.000000000000000 ) ;
#26 = DIRECTION ( 'NONE',  ( -3.491481338843133355E-15, 1.224646799147350249E-16, -1.000000000000000000 ) ) ;
#27 = PRODUCT_DEFINITION_FORMATION_WITH_SPECIFIED_SOURCE ( 'ANY', '', #334, .NOT_KNOWN. ) ;
#28 =( NAMED_UNIT ( * ) PLANE_ANGLE_UNIT ( ) SI_UNIT ( $, .RADIAN. ) );
#29 =( NAMED_UNIT ( * ) PLANE_ANGLE_UNIT ( ) SI_UNIT ( $, .RADIAN. ) );
#30 = ORIENTED_EDGE ( 'NONE', *, *, #22, .F. ) ;
#31 = EDGE_LOOP ( 'NONE', ( #249, #201 ) ) ;
#32 = VERTEX_POINT ( 'NONE', #263 ) ;
#33 = CIRCLE ( 'NONE', #156, 4.999999999999999112 ) ;
#34 = APPLICATION_PROTOCOL_DEFINITION ( 'draft international standard', 'automotive_design', 1998, #101 ) ;
#35 = ORIENTED_EDGE ( 'NONE', *, *, #343, .T. ) ;
#36 = ORIENTED_EDGE ( 'NONE', *, *, #11, .T. ) ;
#37 = FACE_OUTER_BOUND ( 'NONE', #2, .T. ) ;
#38 =( GEOMETRIC_REPRESENTATION_CONTEXT ( 3 ) GLOBAL_UNCERTAINTY_ASSIGNED_CONTEXT ( ( #140 ) ) GLOBAL_UNIT_ASSIGNED_CONTEXT ( ( #164, #29, #5 ) ) REPRESENTATION_CONTEXT ( 'NONE', 'WORKASPACE' ) );
#39 = DIRECTION ( 'NONE',  ( 3.491481338843133355E-15, -0.000000000000000000, 1.000000000000000000 ) ) ;
#40 = AXIS2_PLACEMENT_3D ( 'NONE', #242, #26, #211 ) ;
#41 = DIRECTION ( 'NONE',  ( 4.275831445896958607E-31, 1.000000000000000000, 1.224646799147353207E-16 ) ) ;
#42 = EDGE_CURVE ( 'NONE', #315, #251, #120, .T. ) ;
#43 = FACE_OUTER_BOUND ( 'NONE', #85, .T. ) ;
#44 = CARTESIAN_POINT ( 'NONE',  ( 0.000000000000000000, 0.000000000000000000, 0.000000000000000000 ) ) ;
#45 = CARTESIAN_POINT ( 'NONE',  ( 3.491481338843133355E-14, -4.950000000000001066, 10.00000000000000000 ) ) ;
#46 =( NAMED_UNIT ( * ) SI_UNIT ( $, .STERADIAN. ) SOLID_ANGLE_UNIT ( ) );
#47 = AXIS2_PLACEMENT_3D ( 'NONE', #81, #160, #189 ) ;
#48 = DIRECTION ( 'NONE',  ( 1.000000000000000000, 0.000000000000000000, -3.504491870660216954E-15 ) ) ;
#49 = EDGE_CURVE ( 'NONE', #195, #9, #215, .T. ) ;
#50 = DIRECTION ( 'NONE',  ( 0.000000000000000000, 1.000000000000000000, 0.000000000000000000 ) ) ;
#51 =( LENGTH_UNIT ( ) NAMED_UNIT ( * ) SI_UNIT ( .MILLI., .METRE. ) );
#52 = PLANE ( 'NONE',  #70 ) ;
#53 = SURFACE_STYLE_USAGE ( .BOTH. , #88 ) ;
#54 = MANIFOLD_SOLID_BREP ( 'Corps-Déplacer/Copier1[2]', #258 ) ;
#55 = EDGE_CURVE ( 'NONE', #172, #9, #33, .T. ) ;
#56 = MANIFOLD_SOLID_BREP ( 'Corps-Déplacer/Copier1[1]', #113 ) ;
#57 = SURFACE_STYLE_FILL_AREA ( #289 ) ;
#58 = ORIENTED_EDGE ( 'NONE', *, *, #103, .T. ) ;
#59 = ORIENTED_EDGE ( 'NONE', *, *, #143, .F. ) ;
#60 = UNCERTAINTY_MEASURE_WITH_UNIT (LENGTH_MEASURE( 1.000000000000000082E-05 ), #287, 'distance_accuracy_value', 'NONE');
#61 = ORIENTED_EDGE ( 'NONE', *, *, #83, .F. ) ;
#62 = DIRECTION ( 'NONE',  ( 0.000000000000000000, -1.000000000000000000, 0.000000000000000000 ) ) ;
#63 = VERTEX_POINT ( 'NONE', #188 ) ;
#64 = ORIENTED_EDGE ( 'NONE', *, *, #136, .T. ) ;
#65 = DIRECTION ( 'NONE',  ( 3.491481338843133355E-15, -0.000000000000000000, 1.000000000000000000 ) ) ;
#66 = ADVANCED_FACE ( 'NONE', ( #285 ), #339, .F. ) ;
#67 = DIRECTION ( 'NONE',  ( 3.491481338843133355E-15, -0.000000000000000000, 1.000000000000000000 ) ) ;
#68 = AXIS2_PLACEMENT_3D ( 'NONE', #135, #198, #177 ) ;
#69 = PLANE ( 'NONE',  #324 ) ;
#70 = AXIS2_PLACEMENT_3D ( 'NONE', #131, #16, #330 ) ;
#71 = CONICAL_SURFACE ( 'NONE', #47, 4.999999999999999112, 0.7853981633974548293 ) ;
#72 = CARTESIAN_POINT ( 'NONE',  ( 3.491481338843133355E-14, 0.000000000000000000, 10.00000000000000000 ) ) ;
#73 = EDGE_CURVE ( 'NONE', #206, #195, #12, .T. ) ;
#74 = FACE_OUTER_BOUND ( 'NONE', #31, .T. ) ;
#75 = EDGE_CURVE ( 'NONE', #251, #232, #274, .T. ) ;
#76 = DIRECTION ( 'NONE',  ( -3.491481338843133355E-15, 1.224646799147353207E-16, -1.000000000000000000 ) ) ;
#77 = DIRECTION ( 'NONE',  ( -3.491481338843133355E-15, 1.224646799147353207E-16, -1.000000000000000000 ) ) ;
#78 = ADVANCED_FACE ( 'NONE', ( #37 ), #252, .T. ) ;
#79 = DIRECTION ( 'NONE',  ( 1.000000000000000000, 0.000000000000000000, -3.504491870660216954E-15 ) ) ;
#80 = CARTESIAN_POINT ( 'NONE',  ( 1.710825856033135723E-13, -6.000769315822031726E-15, 49.00000000000000711 ) ) ;
#81 = CARTESIAN_POINT ( 'NONE',  ( 1.710825856033135723E-13, -6.000769315822031726E-15, 49.00000000000000711 ) ) ;
#82 = LINE ( 'NONE', #159, #308 ) ;
#83 = EDGE_CURVE ( 'NONE', #315, #6, #147, .T. ) ;
#84 = AXIS2_PLACEMENT_3D ( 'NONE', #21, #192, #102 ) ;
#85 = EDGE_LOOP ( 'NONE', ( #94, #248, #7, #170 ) ) ;
#86 = CARTESIAN_POINT ( 'NONE',  ( 3.552101355400927380E-14, 4.949999999999999289, 10.00000000000000000 ) ) ;
#87 = EDGE_LOOP ( 'NONE', ( #294, #323, #270, #61 ) ) ;
#88 = SURFACE_SIDE_STYLE ('',( #57 ) ) ;
#89 = EDGE_CURVE ( 'NONE', #6, #232, #275, .T. ) ;
#90 = EDGE_LOOP ( 'NONE', ( #317, #292, #268, #224 ) ) ;
#91 = CARTESIAN_POINT ( 'NONE',  ( 0.000000000000000000, 0.000000000000000000, 0.000000000000000000 ) ) ;
#92 = ORIENTED_EDGE ( 'NONE', *, *, #11, .F. ) ;
#93 = AXIS2_PLACEMENT_3D ( 'NONE', #182, #158, #48 ) ;
#94 = ORIENTED_EDGE ( 'NONE', *, *, #73, .F. ) ;
#95 = ADVANCED_FACE ( 'NONE', ( #151 ), #126, .T. ) ;
#96 = AXIS2_PLACEMENT_3D ( 'NONE', #260, #302, #152 ) ;
#97 = ADVANCED_FACE ( 'NONE', ( #173 ), #69, .T. ) ;
#98 = CARTESIAN_POINT ( 'NONE',  ( 1.038538628783671644E-13, -5.000000000000005329, 49.00000000000000711 ) ) ;
#99 = AXIS2_PLACEMENT_3D ( 'NONE', #104, #216, #306 ) ;
#100 = CYLINDRICAL_SURFACE ( 'NONE', #93, 4.949999999999999289 ) ;
#101 = APPLICATION_CONTEXT ( 'automotive_design' ) ;
#102 = DIRECTION ( 'NONE',  ( 0.000000000000000000, 1.000000000000000000, 0.000000000000000000 ) ) ;
#103 = EDGE_CURVE ( 'NONE', #63, #32, #180, .T. ) ;
#104 = CARTESIAN_POINT ( 'NONE',  ( 0.000000000000000000, 0.000000000000000000, 0.000000000000000000 ) ) ;
#105 = CARTESIAN_POINT ( 'NONE',  ( 1.728283262727351074E-13, 3.999999999999986233, 50.00000000000000000 ) ) ;
#106 = DIRECTION ( 'NONE',  ( -3.491481338843133355E-15, 1.224646799147350249E-16, -1.000000000000000000 ) ) ;
#107 = AXIS2_PLACEMENT_3D ( 'NONE', #44, #155, #111 ) ;
#108 = AXIS2_PLACEMENT_3D ( 'NONE', #244, #230, #62 ) ;
#109 = DIRECTION ( 'NONE',  ( -2.382254525458700115E-15, -0.7071067811865520136, -0.7071067811865431318 ) ) ;
#110 =( LENGTH_UNIT ( ) NAMED_UNIT ( * ) SI_UNIT ( .MILLI., .METRE. ) );
#111 = DIRECTION ( 'NONE',  ( 1.000000000000000000, 0.000000000000000000, -3.491481338843133355E-15 ) ) ;
#112 = ORIENTED_EDGE ( 'NONE', *, *, #299, .T. ) ;
#113 = CLOSED_SHELL ( 'NONE', ( #130, #305, #231, #97, #276, #78, #117, #213 ) ) ;
#114 = AXIS2_PLACEMENT_3D ( 'NONE', #326, #65, #208 ) ;
#115 =( NAMED_UNIT ( * ) PLANE_ANGLE_UNIT ( ) SI_UNIT ( $, .RADIAN. ) );
#116 = ORIENTED_EDGE ( 'NONE', *, *, #335, .F. ) ;
#117 = ADVANCED_FACE ( 'NONE', ( #311 ), #210, .T. ) ;
#118 = PRESENTATION_STYLE_ASSIGNMENT (( #53 ) ) ;
#119 = ORIENTED_EDGE ( 'NONE', *, *, #123, .T. ) ;
#120 = CIRCLE ( 'NONE', #107, 4.950000000000000178 ) ;
#121 = ORIENTED_EDGE ( 'NONE', *, *, #22, .T. ) ;
#122 = DIRECTION ( 'NONE',  ( -3.491481338843133355E-15, 1.224646799147353207E-16, -1.000000000000000000 ) ) ;
#123 = EDGE_CURVE ( 'NONE', #9, #172, #296, .T. ) ;
#124 = CARTESIAN_POINT ( 'NONE',  ( 3.540049335427348087E-14, -1.241682159152332176E-15, 10.13910427085458110 ) ) ;
#125 = VECTOR ( 'NONE', #307, 1000.000000000000000 ) ;
#126 = CYLINDRICAL_SURFACE ( 'NONE', #114, 4.949999999999999289 ) ;
#127 = DIRECTION ( 'NONE',  ( 0.000000000000000000, 1.000000000000000000, 0.000000000000000000 ) ) ;
#128 = FILL_AREA_STYLE ('',( #238 ) ) ;
#129 = PLANE ( 'NONE',  #139 ) ;
#130 = ADVANCED_FACE ( 'NONE', ( #43 ), #202, .T. ) ;
#131 = CARTESIAN_POINT ( 'NONE',  ( 1.745740669421566678E-13, -6.123233995736766085E-15, 50.00000000000000000 ) ) ;
#132 = CARTESIAN_POINT ( 'NONE',  ( -4.949999999999964650, 6.062001655779397525E-16, 10.00000000000001776 ) ) ;
#133 = DIRECTION ( 'NONE',  ( -1.332267629550187849E-14, -1.000000000000000000, 0.000000000000000000 ) ) ;
#134 = CARTESIAN_POINT ( 'NONE',  ( 3.491481338843133355E-14, -1.224646799147353256E-15, 10.00000000000000000 ) ) ;
#135 = CARTESIAN_POINT ( 'NONE',  ( 1.745740669421566678E-13, -6.123233995736766085E-15, 50.00000000000000000 ) ) ;
#136 = EDGE_CURVE ( 'NONE', #321, #63, #183, .T. ) ;
#137 = DIRECTION ( 'NONE',  ( 1.000000000000000000, 0.000000000000000000, 0.000000000000000000 ) ) ;
#138 = ORIENTED_EDGE ( 'NONE', *, *, #89, .T. ) ;
#139 = AXIS2_PLACEMENT_3D ( 'NONE', #328, #237, #262 ) ;
#140 = UNCERTAINTY_MEASURE_WITH_UNIT (LENGTH_MEASURE( 1.000000000000000082E-05 ), #164, 'distance_accuracy_value', 'NONE');
#141 = EDGE_LOOP ( 'NONE', ( #318, #165, #121, #291 ) ) ;
#142 = EDGE_LOOP ( 'NONE', ( #35, #243 ) ) ;
#143 = EDGE_CURVE ( 'NONE', #232, #6, #150, .T. ) ;
#144 = EDGE_LOOP ( 'NONE', ( #342, #319 ) ) ;
#145 = CIRCLE ( 'NONE', #84, 4.999999999999996447 ) ;
#146 = AXIS2_PLACEMENT_3D ( 'NONE', #134, #184, #157 ) ;
#147 = LINE ( 'NONE', #234, #186 ) ;
#148 = ADVANCED_FACE ( 'NONE', ( #236 ), #129, .F. ) ;
#149 = CARTESIAN_POINT ( 'NONE',  ( 0.000000000000000000, 0.000000000000000000, 0.000000000000000000 ) ) ;
#150 = CIRCLE ( 'NONE', #336, 4.949999999999999289 ) ;
#151 = FACE_OUTER_BOUND ( 'NONE', #87, .T. ) ;
#152 = DIRECTION ( 'NONE',  ( 0.000000000000000000, -1.000000000000000000, 0.000000000000000000 ) ) ;
#153 = LINE ( 'NONE', #313, #125 ) ;
#154 = DIRECTION ( 'NONE',  ( 4.275831445896958607E-31, 1.000000000000000000, 1.224646799147353207E-16 ) ) ;
#155 = DIRECTION ( 'NONE',  ( 3.491481338843133355E-15, -0.000000000000000000, 1.000000000000000000 ) ) ;
#156 = AXIS2_PLACEMENT_3D ( 'NONE', #80, #106, #133 ) ;
#157 = DIRECTION ( 'NONE',  ( 0.000000000000000000, -1.000000000000000000, 0.000000000000000000 ) ) ;
#158 = DIRECTION ( 'NONE',  ( 3.491481338843133355E-15, -0.000000000000000000, 1.000000000000000000 ) ) ;
#159 = CARTESIAN_POINT ( 'NONE',  ( 6.123233995736743603E-16, -4.999999999999999112, -6.123233995736786004E-16 ) ) ;
#160 = DIRECTION ( 'NONE',  ( -3.491481338843133355E-15, 1.224646799147350249E-16, -1.000000000000000000 ) ) ;
#161 = DIRECTION ( 'NONE',  ( -3.491481338843133355E-15, 0.000000000000000000, -1.000000000000000000 ) ) ;
#162 = STYLED_ITEM ( 'NONE', ( #118 ), #178 ) ;
#163 = MECHANICAL_DESIGN_GEOMETRIC_PRESENTATION_REPRESENTATION (  '', ( #193 ), #245 ) ;
#164 =( LENGTH_UNIT ( ) NAMED_UNIT ( * ) SI_UNIT ( .MILLI., .METRE. ) );
#165 = ORIENTED_EDGE ( 'NONE', *, *, #335, .T. ) ;
#166 = DIRECTION ( 'NONE',  ( 0.000000000000000000, 1.000000000000000000, 0.000000000000000000 ) ) ;
#167 = ORIENTED_EDGE ( 'NONE', *, *, #15, .T. ) ;
#168 =( GEOMETRIC_REPRESENTATION_CONTEXT ( 3 ) GLOBAL_UNCERTAINTY_ASSIGNED_CONTEXT ( ( #314 ) ) GLOBAL_UNIT_ASSIGNED_CONTEXT ( ( #110, #28, #218 ) ) REPRESENTATION_CONTEXT ( 'NONE', 'WORKASPACE' ) );
#169 = AXIS2_PLACEMENT_3D ( 'NONE', #23, #214, #154 ) ;
#170 = ORIENTED_EDGE ( 'NONE', *, *, #49, .F. ) ;
#171 = ORIENTED_EDGE ( 'NONE', *, *, #15, .F. ) ;
#172 = VERTEX_POINT ( 'NONE', #98 ) ;
#173 = FACE_OUTER_BOUND ( 'NONE', #142, .T. ) ;
#174 = STYLED_ITEM ( 'NONE', ( #283 ), #56 ) ;
#175 = CARTESIAN_POINT ( 'NONE',  ( 3.491481338843133355E-14, 4.949999999999999289, 10.00000000000000000 ) ) ;
#176 = DIRECTION ( 'NONE',  ( 3.491481338843133355E-15, -0.000000000000000000, 1.000000000000000000 ) ) ;
#177 = DIRECTION ( 'NONE',  ( 0.000000000000000000, -1.000000000000000000, 0.000000000000000000 ) ) ;
#178 = ADVANCED_BREP_SHAPE_REPRESENTATION ( '957036', ( #56, #54, #338 ), #327 ) ;
#179 = MECHANICAL_DESIGN_GEOMETRIC_PRESENTATION_REPRESENTATION (  '', ( #162 ), #38 ) ;
#180 = CIRCLE ( 'NONE', #297, 4.999999999999996447 ) ;
#181 = AXIS2_PLACEMENT_3D ( 'NONE', #1, #204, #166 ) ;
#182 = CARTESIAN_POINT ( 'NONE',  ( 3.491481338843133355E-14, 0.000000000000000000, 10.00000000000000000 ) ) ;
#183 = LINE ( 'NONE', #45, #281 ) ;
#184 = DIRECTION ( 'NONE',  ( 3.491481338843133355E-15, -1.224646799147353207E-16, 1.000000000000000000 ) ) ;
#185 = FILL_AREA_STYLE_COLOUR ( '', #272 ) ;
#186 = VECTOR ( 'NONE', #67, 1000.000000000000000 ) ;
#187 = CARTESIAN_POINT ( 'NONE',  ( 1.716949090028872228E-13, -5.000000000000005329, 49.00000000000000711 ) ) ;
#188 = CARTESIAN_POINT ( 'NONE',  ( 1.038538628783671644E-13, -4.999999999999997335, 10.13910427085458110 ) ) ;
#189 = DIRECTION ( 'NONE',  ( 0.000000000000000000, 1.000000000000000000, 0.000000000000000000 ) ) ;
#190 = CARTESIAN_POINT ( 'NONE',  ( 3.491481338843133355E-14, 4.949999999999999289, 10.00000000000000000 ) ) ;
#191 = ADVANCED_FACE ( 'NONE', ( #284 ), #100, .T. ) ;
#192 = DIRECTION ( 'NONE',  ( -3.491481338843133355E-15, 1.224646799147353207E-16, -1.000000000000000000 ) ) ;
#193 = STYLED_ITEM ( 'NONE', ( #222 ), #54 ) ;
#194 = DIRECTION ( 'NONE',  ( 3.327098416510790371E-15, 0.3382550599108799516, 0.9410544694355832407 ) ) ;
#195 = VERTEX_POINT ( 'NONE', #105 ) ;
#196 = FILL_AREA_STYLE_COLOUR ( '', #265 ) ;
#197 = ORIENTED_EDGE ( 'NONE', *, *, #143, .T. ) ;
#198 = DIRECTION ( 'NONE',  ( 3.491481338843133355E-15, -1.224646799147353207E-16, 1.000000000000000000 ) ) ;
#199 = UNCERTAINTY_MEASURE_WITH_UNIT (LENGTH_MEASURE( 1.000000000000000082E-05 ), #51, 'distance_accuracy_value', 'NONE');
#200 = APPLICATION_PROTOCOL_DEFINITION ( 'draft international standard', 'automotive_design', 1998, #207 ) ;
#201 = ORIENTED_EDGE ( 'NONE', *, *, #73, .T. ) ;
#202 = CONICAL_SURFACE ( 'NONE', #40, 4.999999999999999112, 0.7853981633974548293 ) ;
#203 = CONICAL_SURFACE ( 'NONE', #146, 4.950000000000000178, 0.3450620389298170720 ) ;
#204 = DIRECTION ( 'NONE',  ( -3.491481338843133355E-15, 1.224646799147353207E-16, -1.000000000000000000 ) ) ;
#205 = EDGE_LOOP ( 'NONE', ( #138, #197 ) ) ;
#206 = VERTEX_POINT ( 'NONE', #255 ) ;
#207 = APPLICATION_CONTEXT ( 'automotive_design' ) ;
#208 = DIRECTION ( 'NONE',  ( 1.000000000000000000, 0.000000000000000000, -3.504491870660216954E-15 ) ) ;
#209 = EDGE_LOOP ( 'NONE', ( #119, #167, #30, #92 ) ) ;
#210 = CONICAL_SURFACE ( 'NONE', #96, 4.950000000000000178, 0.3450620389298170720 ) ;
#211 = DIRECTION ( 'NONE',  ( 0.000000000000000000, 1.000000000000000000, 0.000000000000000000 ) ) ;
#212 = VECTOR ( 'NONE', #39, 1000.000000000000000 ) ;
#213 = ADVANCED_FACE ( 'NONE', ( #20 ), #71, .T. ) ;
#214 = DIRECTION ( 'NONE',  ( -3.491481338843133355E-15, 1.224646799147353207E-16, -1.000000000000000000 ) ) ;
#215 = LINE ( 'NONE', #304, #25 ) ;
#216 = DIRECTION ( 'NONE',  ( 3.491481338843133355E-15, -0.000000000000000000, 1.000000000000000000 ) ) ;
#217 = DIRECTION ( 'NONE',  ( 3.285674118869264182E-15, -0.3382550599108801737, 0.9410544694355831297 ) ) ;
#218 =( NAMED_UNIT ( * ) SI_UNIT ( $, .STERADIAN. ) SOLID_ANGLE_UNIT ( ) );
#219 = CIRCLE ( 'NONE', #99, 4.950000000000000178 ) ;
#220 = CARTESIAN_POINT ( 'NONE',  ( 3.491481338843133355E-14, -1.224646799147353256E-15, 10.00000000000000000 ) ) ;
#221 = PRODUCT_DEFINITION_SHAPE ( 'NONE', 'NONE',  #278 ) ;
#222 = PRESENTATION_STYLE_ASSIGNMENT (( #333 ) ) ;
#223 = PRODUCT_CONTEXT ( 'NONE', #207, 'mechanical' ) ;
#224 = ORIENTED_EDGE ( 'NONE', *, *, #55, .F. ) ;
#225 = AXIS2_PLACEMENT_3D ( 'NONE', #190, #161, #266 ) ;
#226 =( NAMED_UNIT ( * ) SI_UNIT ( $, .STERADIAN. ) SOLID_ANGLE_UNIT ( ) );
#227 = ORIENTED_EDGE ( 'NONE', *, *, #75, .F. ) ;
#228 = DIRECTION ( 'NONE',  ( 0.000000000000000000, 0.000000000000000000, 1.000000000000000000 ) ) ;
#229 = EDGE_LOOP ( 'NONE', ( #227, #112, #273, #59 ) ) ;
#230 = DIRECTION ( 'NONE',  ( 3.491481338843133355E-15, -1.224646799147353207E-16, 1.000000000000000000 ) ) ;
#231 = ADVANCED_FACE ( 'NONE', ( #286 ), #279, .T. ) ;
#232 = VERTEX_POINT ( 'NONE', #132 ) ;
#233 = ORIENTED_EDGE ( 'NONE', *, *, #103, .F. ) ;
#234 = CARTESIAN_POINT ( 'NONE',  ( 4.950000000000033928, 0.000000000000000000, 9.999999999999982236 ) ) ;
#235 = AXIS2_PLACEMENT_3D ( 'NONE', #295, #176, #298 ) ;
#236 = FACE_OUTER_BOUND ( 'NONE', #144, .T. ) ;
#237 = DIRECTION ( 'NONE',  ( 3.491481338843133355E-15, -0.000000000000000000, 1.000000000000000000 ) ) ;
#238 = FILL_AREA_STYLE_COLOUR ( '', #316 ) ;
#239 = CARTESIAN_POINT ( 'NONE',  ( 4.950000000000000178, 0.000000000000000000, -1.728283262727351011E-14 ) ) ;
#240 = DIRECTION ( 'NONE',  ( -3.491481338843133355E-15, 1.224646799147350249E-16, -1.000000000000000000 ) ) ;
#241 =( NAMED_UNIT ( * ) PLANE_ANGLE_UNIT ( ) SI_UNIT ( $, .RADIAN. ) );
#242 = CARTESIAN_POINT ( 'NONE',  ( 1.710825856033135723E-13, -6.000769315822031726E-15, 49.00000000000000711 ) ) ;
#243 = ORIENTED_EDGE ( 'NONE', *, *, #267, .T. ) ;
#244 = CARTESIAN_POINT ( 'NONE',  ( 1.745740669421566678E-13, -6.123233995736766085E-15, 50.00000000000000000 ) ) ;
#245 =( GEOMETRIC_REPRESENTATION_CONTEXT ( 3 ) GLOBAL_UNCERTAINTY_ASSIGNED_CONTEXT ( ( #199 ) ) GLOBAL_UNIT_ASSIGNED_CONTEXT ( ( #51, #241, #46 ) ) REPRESENTATION_CONTEXT ( 'NONE', 'WORKASPACE' ) );
#246 = VECTOR ( 'NONE', #194, 1000.000000000000114 ) ;
#247 = VERTEX_POINT ( 'NONE', #277 ) ;
#248 = ORIENTED_EDGE ( 'NONE', *, *, #261, .T. ) ;
#249 = ORIENTED_EDGE ( 'NONE', *, *, #322, .T. ) ;
#250 = AXIS2_PLACEMENT_3D ( 'NONE', #19, #240, #337 ) ;
#251 = VERTEX_POINT ( 'NONE', #303 ) ;
#252 = CYLINDRICAL_SURFACE ( 'NONE', #254, 4.999999999999999112 ) ;
#253 = DIRECTION ( 'NONE',  ( -3.491481338843133355E-15, 1.224646799147353207E-16, -1.000000000000000000 ) ) ;
#254 = AXIS2_PLACEMENT_3D ( 'NONE', #149, #122, #41 ) ;
#255 = CARTESIAN_POINT ( 'NONE',  ( 1.733794173323514029E-13, -3.999999999999998224, 50.00000000000000000 ) ) ;
#256 = FILL_AREA_STYLE ('',( #185 ) ) ;
#257 = DIRECTION ( 'NONE',  ( -3.491481338843133355E-15, 1.224646799147353207E-16, -1.000000000000000000 ) ) ;
#258 = CLOSED_SHELL ( 'NONE', ( #95, #191, #66, #148 ) ) ;
#259 = SURFACE_SIDE_STYLE ('',( #17 ) ) ;
#260 = CARTESIAN_POINT ( 'NONE',  ( 3.491481338843133355E-14, -1.224646799147353256E-15, 10.00000000000000000 ) ) ;
#261 = EDGE_CURVE ( 'NONE', #206, #172, #309, .T. ) ;
#262 = DIRECTION ( 'NONE',  ( 1.000000000000000000, 0.000000000000000000, -3.491481338843133355E-15 ) ) ;
#263 = CARTESIAN_POINT ( 'NONE',  ( 3.540049335427348087E-14, 4.999999999999995559, 10.13910427085458110 ) ) ;
#264 = FACE_OUTER_BOUND ( 'NONE', #141, .T. ) ;
#265 = COLOUR_RGB ( '',1.000000000000000000, 1.000000000000000000, 1.000000000000000000 ) ;
#266 = DIRECTION ( 'NONE',  ( -1.000000000000000000, 0.000000000000000000, 3.491481338843133355E-15 ) ) ;
#267 = EDGE_CURVE ( 'NONE', #247, #321, #3, .T. ) ;
#268 = ORIENTED_EDGE ( 'NONE', *, *, #49, .T. ) ;
#269 = LINE ( 'NONE', #86, #246 ) ;
#270 = ORIENTED_EDGE ( 'NONE', *, *, #89, .F. ) ;
#271 = ORIENTED_EDGE ( 'NONE', *, *, #343, .F. ) ;
#272 = COLOUR_RGB ( '',1.000000000000000000, 1.000000000000000000, 1.000000000000000000 ) ;
#273 = ORIENTED_EDGE ( 'NONE', *, *, #83, .T. ) ;
#274 = LINE ( 'NONE', #14, #212 ) ;
#275 = CIRCLE ( 'NONE', #235, 4.949999999999999289 ) ;
#276 = ADVANCED_FACE ( 'NONE', ( #74 ), #52, .T. ) ;
#277 = CARTESIAN_POINT ( 'NONE',  ( 3.576691515392822152E-14, 4.949999999999999289, 10.00000000000000000 ) ) ;
#278 = PRODUCT_DEFINITION ( 'UNKNOWN', '', #27, #4 ) ;
#279 = CYLINDRICAL_SURFACE ( 'NONE', #169, 4.999999999999999112 ) ;
#280 = DIRECTION ( 'NONE',  ( -2.468850131082249172E-15, 0.7071067811865522357, -0.7071067811865427988 ) ) ;
#281 = VECTOR ( 'NONE', #217, 1000.000000000000000 ) ;
#282 = DIRECTION ( 'NONE',  ( 3.491481338843133355E-15, -0.000000000000000000, 1.000000000000000000 ) ) ;
#283 = PRESENTATION_STYLE_ASSIGNMENT (( #340 ) ) ;
#284 = FACE_OUTER_BOUND ( 'NONE', #229, .T. ) ;
#285 = FACE_OUTER_BOUND ( 'NONE', #205, .T. ) ;
#286 = FACE_OUTER_BOUND ( 'NONE', #209, .T. ) ;
#287 =( LENGTH_UNIT ( ) NAMED_UNIT ( * ) SI_UNIT ( .MILLI., .METRE. ) );
#288 = CIRCLE ( 'NONE', #108, 3.999999999999992450 ) ;
#289 = FILL_AREA_STYLE ('',( #196 ) ) ;
#290 = ORIENTED_EDGE ( 'NONE', *, *, #55, .T. ) ;
#291 = ORIENTED_EDGE ( 'NONE', *, *, #136, .F. ) ;
#292 = ORIENTED_EDGE ( 'NONE', *, *, #322, .F. ) ;
#293 = EDGE_LOOP ( 'NONE', ( #116, #271, #64, #58 ) ) ;
#294 = ORIENTED_EDGE ( 'NONE', *, *, #42, .T. ) ;
#295 = CARTESIAN_POINT ( 'NONE',  ( 3.491481338843133355E-14, 0.000000000000000000, 10.00000000000000000 ) ) ;
#296 = CIRCLE ( 'NONE', #250, 4.999999999999999112 ) ;
#297 = AXIS2_PLACEMENT_3D ( 'NONE', #124, #257, #50 ) ;
#298 = DIRECTION ( 'NONE',  ( 1.000000000000000000, 0.000000000000000000, -3.504491870660216954E-15 ) ) ;
#299 = EDGE_CURVE ( 'NONE', #251, #315, #219, .T. ) ;
#300 = VECTOR ( 'NONE', #109, 999.9999999999998863 ) ;
#301 = PRESENTATION_LAYER_ASSIGNMENT (  '', '', ( #193 ) ) ;
#302 = DIRECTION ( 'NONE',  ( 3.491481338843133355E-15, -1.224646799147353207E-16, 1.000000000000000000 ) ) ;
#303 = CARTESIAN_POINT ( 'NONE',  ( -4.950000000000001066, 6.062001655779421191E-16, 1.728283262727351642E-14 ) ) ;
#304 = CARTESIAN_POINT ( 'NONE',  ( 1.710825856033135723E-13, 4.999999999999992895, 49.00000000000000711 ) ) ;
#305 = ADVANCED_FACE ( 'NONE', ( #264 ), #203, .T. ) ;
#306 = DIRECTION ( 'NONE',  ( 1.000000000000000000, 0.000000000000000000, -3.491481338843133355E-15 ) ) ;
#307 = DIRECTION ( 'NONE',  ( -3.491481338843133355E-15, 1.224646799147353207E-16, -1.000000000000000000 ) ) ;
#308 = VECTOR ( 'NONE', #77, 1000.000000000000000 ) ;
#309 = LINE ( 'NONE', #187, #300 ) ;
#310 = CARTESIAN_POINT ( 'NONE',  ( 1.032415394787935140E-13, 4.999999999999992895, 49.00000000000000711 ) ) ;
#311 = FACE_OUTER_BOUND ( 'NONE', #293, .T. ) ;
#312 = SURFACE_STYLE_FILL_AREA ( #128 ) ;
#313 = CARTESIAN_POINT ( 'NONE',  ( 2.137915722948478778E-30, 4.999999999999999112, 6.123233995736765296E-16 ) ) ;
#314 = UNCERTAINTY_MEASURE_WITH_UNIT (LENGTH_MEASURE( 1.000000000000000082E-05 ), #110, 'distance_accuracy_value', 'NONE');
#315 = VERTEX_POINT ( 'NONE', #239 ) ;
#316 = COLOUR_RGB ( '',1.000000000000000000, 1.000000000000000000, 1.000000000000000000 ) ;
#317 = ORIENTED_EDGE ( 'NONE', *, *, #261, .F. ) ;
#318 = ORIENTED_EDGE ( 'NONE', *, *, #267, .F. ) ;
#319 = ORIENTED_EDGE ( 'NONE', *, *, #299, .F. ) ;
#320 = CIRCLE ( 'NONE', #181, 4.950000000000000178 ) ;
#321 = VERTEX_POINT ( 'NONE', #332 ) ;
#322 = EDGE_CURVE ( 'NONE', #195, #206, #288, .T. ) ;
#323 = ORIENTED_EDGE ( 'NONE', *, *, #75, .T. ) ;
#324 = AXIS2_PLACEMENT_3D ( 'NONE', #175, #253, #10 ) ;
#325 = PRODUCT_RELATED_PRODUCT_CATEGORY ( 'part', '', ( #334 ) ) ;
#326 = CARTESIAN_POINT ( 'NONE',  ( 3.491481338843133355E-14, 0.000000000000000000, 10.00000000000000000 ) ) ;
#327 =( GEOMETRIC_REPRESENTATION_CONTEXT ( 3 ) GLOBAL_UNCERTAINTY_ASSIGNED_CONTEXT ( ( #60 ) ) GLOBAL_UNIT_ASSIGNED_CONTEXT ( ( #287, #115, #226 ) ) REPRESENTATION_CONTEXT ( 'NONE', 'WORKASPACE' ) );
#328 = CARTESIAN_POINT ( 'NONE',  ( 7.803392388761951340E-31, 4.950000000000000178, 2.234980408443920201E-16 ) ) ;
#329 = CARTESIAN_POINT ( 'NONE',  ( 4.950000000000033928, 0.000000000000000000, 9.999999999999982236 ) ) ;
#330 = DIRECTION ( 'NONE',  ( -4.275831445896958607E-31, -1.000000000000000000, -1.224646799147353207E-16 ) ) ;
#331 = SURFACE_SIDE_STYLE ('',( #312 ) ) ;
#332 = CARTESIAN_POINT ( 'NONE',  ( 3.515765337135240721E-14, -4.950000000000001066, 10.00000000000000000 ) ) ;
#333 = SURFACE_STYLE_USAGE ( .BOTH. , #259 ) ;
#334 = PRODUCT ( '957036', '957036', '', ( #223 ) ) ;
#335 = EDGE_CURVE ( 'NONE', #247, #32, #269, .T. ) ;
#336 = AXIS2_PLACEMENT_3D ( 'NONE', #72, #282, #79 ) ;
#337 = DIRECTION ( 'NONE',  ( 1.421085471520199898E-14, -1.000000000000000000, 0.000000000000000000 ) ) ;
#338 = AXIS2_PLACEMENT_3D ( 'NONE', #91, #228, #137 ) ;
#339 = PLANE ( 'NONE',  #225 ) ;
#340 = SURFACE_STYLE_USAGE ( .BOTH. , #331 ) ;
#341 = SHAPE_DEFINITION_REPRESENTATION ( #221, #178 ) ;
#342 = ORIENTED_EDGE ( 'NONE', *, *, #42, .F. ) ;
#343 = EDGE_CURVE ( 'NONE', #321, #247, #320, .T. ) ;
ENDSEC;
END-ISO-10303-21;
