ISO-10303-21;
HEADER;
FILE_DESCRIPTION (( 'STEP AP203' ),
    '1' );
FILE_NAME ('956993.step',
    '2021-11-17T08:27:00',
    ( '' ),
    ( '' ),
    'SwSTEP 2.0',
    'SolidWorks 2019',
    '' );
FILE_SCHEMA (( 'CONFIG_CONTROL_DESIGN' ));
ENDSEC;

DATA;
#1 = SHAPE_DEFINITION_REPRESENTATION ( #206, #125 ) ;
#2 = PERSON_AND_ORGANIZATION ( #24, #15 ) ;
#3 = EDGE_CURVE ( 'NONE', #75, #75, #14, .T. ) ;
#4 = CALENDAR_DATE ( 2021, 17, 11 ) ;
#5 = DIRECTION ( 'NONE',  ( -3.491481338843133355E-15, 1.224646799147353207E-16, -1.000000000000000000 ) ) ;
#6 = APPLICATION_CONTEXT ( 'configuration controlled 3d designs of mechanical parts and assemblies' ) ;
#7 = PERSON_AND_ORGANIZATION ( #24, #15 ) ;
#8 = EDGE_LOOP ( 'NONE', ( #184 ) ) ;
#9 = AXIS2_PLACEMENT_3D ( 'NONE', #55, #131, #133 ) ;
#10 = ORIENTED_EDGE ( 'NONE', *, *, #181, .T. ) ;
#11 = EDGE_LOOP ( 'NONE', ( #126 ) ) ;
#12 = CARTESIAN_POINT ( 'NONE',  ( 8.728703347107833388E-14, -3.061616997868383043E-15, 25.00000000000000000 ) ) ;
#13 = CARTESIAN_POINT ( 'NONE',  ( 6.982962677686238114E-16, -6.000000000000000000, 0.1999999999999991507 ) ) ;
#14 = CIRCLE ( 'NONE', #173, 6.000000000000000000 ) ;
#15 = ORGANIZATION ( 'UNSPECIFIED', 'UNSPECIFIED', '' ) ;
#16 = CC_DESIGN_PERSON_AND_ORGANIZATION_ASSIGNMENT ( #211, #56, ( #103 ) ) ;
#17 =( NAMED_UNIT ( * ) SI_UNIT ( $, .STERADIAN. ) SOLID_ANGLE_UNIT ( ) );
#18 = CARTESIAN_POINT ( 'NONE',  ( 2.897929511239800811E-13, -1.016456843292303150E-14, 83.00000000000000000 ) ) ;
#19 = EDGE_CURVE ( 'NONE', #205, #205, #151, .T. ) ;
#20 = CC_DESIGN_APPROVAL ( #89, ( #103 ) ) ;
#21 = AXIS2_PLACEMENT_3D ( 'NONE', #127, #38, #117 ) ;
#22 = FACE_OUTER_BOUND ( 'NONE', #171, .T. ) ;
#23 = APPROVAL_DATE_TIME ( #167, #89 ) ;
#24 = PERSON ( 'UNSPECIFIED', 'UNSPECIFIED', 'UNSPECIFIED', ('UNSPECIFIED'), ('UNSPECIFIED'), ('UNSPECIFIED') ) ;
#25 = CLOSED_SHELL ( 'NONE', ( #145, #54, #82, #186 ) ) ;
#26 = CALENDAR_DATE ( 2021, 17, 11 ) ;
#27 = LOCAL_TIME ( 9, 27, 0.0000000000000000000, #119 ) ;
#28 = ORIENTED_EDGE ( 'NONE', *, *, #3, .F. ) ;
#29 = COORDINATED_UNIVERSAL_TIME_OFFSET ( 1, 0, .AHEAD. ) ;
#30 = ORIENTED_EDGE ( 'NONE', *, *, #220, .F. ) ;
#31 = EDGE_CURVE ( 'NONE', #77, #77, #78, .T. ) ;
#32 = FACE_BOUND ( 'NONE', #217, .T. ) ;
#33 = EDGE_LOOP ( 'NONE', ( #87 ) ) ;
#34 = CARTESIAN_POINT ( 'NONE',  ( -2.466354574662847742E-30, 8.603270578922438976E-32, -7.063920254203761437E-16 ) ) ;
#35 = FACE_OUTER_BOUND ( 'NONE', #8, .T. ) ;
#36 = APPROVAL_PERSON_ORGANIZATION ( #2, #89, #139 ) ;
#37 = AXIS2_PLACEMENT_3D ( 'NONE', #46, #85, #158 ) ;
#38 = DIRECTION ( 'NONE',  ( -3.491481338843133355E-15, 1.224646799147353207E-16, -1.000000000000000000 ) ) ;
#39 = AXIS2_PLACEMENT_3D ( 'NONE', #204, #51, #187 ) ;
#40 = CARTESIAN_POINT ( 'NONE',  ( 8.728703347107833388E-14, 5.999999999999996447, 25.00000000000000000 ) ) ;
#41 = CC_DESIGN_PERSON_AND_ORGANIZATION_ASSIGNMENT ( #198, #157, ( #111 ) ) ;
#42 = DIRECTION ( 'NONE',  ( -3.491481338843133355E-15, 1.224646799147353207E-16, -1.000000000000000000 ) ) ;
#43 = DIRECTION ( 'NONE',  ( -3.491481338843133355E-15, 1.224646799147353207E-16, -1.000000000000000000 ) ) ;
#44 = CIRCLE ( 'NONE', #190, 5.500000000000000000 ) ;
#45 = APPROVAL_STATUS ( 'not_yet_approved' ) ;
#46 = CARTESIAN_POINT ( 'NONE',  ( 8.728703347107833388E-14, 4.499279347985567350E-32, 25.00000000000000000 ) ) ;
#47 = PERSON_AND_ORGANIZATION_ROLE ( 'creator' ) ;
#48 = PLANE ( 'NONE',  #39 ) ;
#49 = CARTESIAN_POINT ( 'NONE',  ( 2.880472104545584703E-13, -1.010333609296566392E-14, 82.50000000000000000 ) ) ;
#50 = EDGE_LOOP ( 'NONE', ( #99 ) ) ;
#51 = DIRECTION ( 'NONE',  ( 3.491481338843133355E-15, -1.224646799147353207E-16, 1.000000000000000000 ) ) ;
#52 = DIRECTION ( 'NONE',  ( -3.491481338843133355E-15, 1.224646799147353207E-16, -1.000000000000000000 ) ) ;
#53 = DIRECTION ( 'NONE',  ( 0.0000000000000000000, 1.000000000000000000, 0.0000000000000000000 ) ) ;
#54 = ADVANCED_FACE ( 'NONE', ( #160 ), #48, .T. ) ;
#55 = CARTESIAN_POINT ( 'NONE',  ( 0.0000000000000000000, 0.0000000000000000000, 0.0000000000000000000 ) ) ;
#56 = PERSON_AND_ORGANIZATION_ROLE ( 'design_supplier' ) ;
#57 = CC_DESIGN_DATE_AND_TIME_ASSIGNMENT ( #197, #212, ( #111 ) ) ;
#58 = CIRCLE ( 'NONE', #166, 5.799999999999998046 ) ;
#59 = APPROVAL_STATUS ( 'not_yet_approved' ) ;
#60 = DATE_AND_TIME ( #95, #109 ) ;
#61 = FACE_BOUND ( 'NONE', #50, .T. ) ;
#62 = FACE_OUTER_BOUND ( 'NONE', #68, .T. ) ;
#63 = CC_DESIGN_PERSON_AND_ORGANIZATION_ASSIGNMENT ( #121, #195, ( #200 ) ) ;
#64 = AXIS2_PLACEMENT_3D ( 'NONE', #163, #42, #221 ) ;
#65 = MANIFOLD_SOLID_BREP ( 'Corps-Déplacer/Copier1[2]', #25 ) ;
#66 = PRODUCT ( '956993', '956993', '', ( #192 ) ) ;
#67 = ORIENTED_EDGE ( 'NONE', *, *, #3, .T. ) ;
#68 = EDGE_LOOP ( 'NONE', ( #67 ) ) ;
#69 = CC_DESIGN_SECURITY_CLASSIFICATION ( #200, ( #103 ) ) ;
#70 = AXIS2_PLACEMENT_3D ( 'NONE', #183, #201, #140 ) ;
#71 = DIRECTION ( 'NONE',  ( -3.491481338843133355E-15, 1.224646799147353207E-16, -1.000000000000000000 ) ) ;
#72 =( LENGTH_UNIT ( ) NAMED_UNIT ( * ) SI_UNIT ( .MILLI., .METRE. ) );
#73 = AXIS2_PLACEMENT_3D ( 'NONE', #135, #115, #93 ) ;
#74 = AXIS2_PLACEMENT_3D ( 'NONE', #146, #5, #215 ) ;
#75 = VERTEX_POINT ( 'NONE', #191 ) ;
#76 = EDGE_CURVE ( 'NONE', #177, #177, #58, .T. ) ;
#77 = VERTEX_POINT ( 'NONE', #113 ) ;
#78 = CIRCLE ( 'NONE', #223, 6.000000000000000000 ) ;
#79 = APPLICATION_PROTOCOL_DEFINITION ( 'international standard', 'config_control_design', 1994, #6 ) ;
#80 = APPROVAL_DATE_TIME ( #84, #207 ) ;
#81 = COORDINATED_UNIVERSAL_TIME_OFFSET ( 1, 0, .AHEAD. ) ;
#82 = ADVANCED_FACE ( 'NONE', ( #61, #122 ), #142, .T. ) ;
#83 = FACE_OUTER_BOUND ( 'NONE', #216, .T. ) ;
#84 = DATE_AND_TIME ( #26, #94 ) ;
#85 = DIRECTION ( 'NONE',  ( 3.491481338843133355E-15, -1.224646799147353207E-16, 1.000000000000000000 ) ) ;
#86 = ORIENTED_EDGE ( 'NONE', *, *, #19, .F. ) ;
#87 = ORIENTED_EDGE ( 'NONE', *, *, #19, .T. ) ;
#88 = VERTEX_POINT ( 'NONE', #116 ) ;
#89 = APPROVAL ( #45, 'UNSPECIFIED' ) ;
#90 = CC_DESIGN_DATE_AND_TIME_ASSIGNMENT ( #60, #100, ( #200 ) ) ;
#91 = APPLICATION_PROTOCOL_DEFINITION ( 'international standard', 'config_control_design', 1994, #188 ) ;
#92 = FACE_OUTER_BOUND ( 'NONE', #101, .T. ) ;
#93 = DIRECTION ( 'NONE',  ( -4.172848212839010723E-31, -1.000000000000000000, -1.219727444046192488E-16 ) ) ;
#94 = LOCAL_TIME ( 9, 27, 0.0000000000000000000, #118 ) ;
#95 = CALENDAR_DATE ( 2021, 17, 11 ) ;
#96 = ADVANCED_FACE ( 'NONE', ( #32, #83 ), #130, .T. ) ;
#97 = COORDINATED_UNIVERSAL_TIME_OFFSET ( 1, 0, .AHEAD. ) ;
#98 = CALENDAR_DATE ( 2021, 17, 11 ) ;
#99 = ORIENTED_EDGE ( 'NONE', *, *, #76, .T. ) ;
#100 = DATE_TIME_ROLE ( 'classification_date' ) ;
#101 = EDGE_LOOP ( 'NONE', ( #147 ) ) ;
#102 = DIRECTION ( 'NONE',  ( -3.491481338843133355E-15, 1.224646799147353207E-16, -1.000000000000000000 ) ) ;
#103 = PRODUCT_DEFINITION_FORMATION_WITH_SPECIFIED_SOURCE ( 'ANY', '', #66, .NOT_KNOWN. ) ;
#104 = CIRCLE ( 'NONE', #73, 6.000000000000000000 ) ;
#105 = DIRECTION ( 'NONE',  ( 0.0000000000000000000, 1.000000000000000000, 0.0000000000000000000 ) ) ;
#106 = DESIGN_CONTEXT ( 'detailed design', #6, 'design' ) ;
#107 = DIRECTION ( 'NONE',  ( 3.491481338843133355E-15, -1.217917285207545432E-16, 1.000000000000000000 ) ) ;
#108 = CARTESIAN_POINT ( 'NONE',  ( -1.282749433769087757E-30, 4.499279347985572824E-32, -3.673940397442059868E-16 ) ) ;
#109 = LOCAL_TIME ( 9, 27, 0.0000000000000000000, #97 ) ;
#110 = AXIS2_PLACEMENT_3D ( 'NONE', #199, #102, #141 ) ;
#111 = PRODUCT_DEFINITION ( 'UNKNOWN', '', #103, #106 ) ;
#112 = PRODUCT_RELATED_PRODUCT_CATEGORY ( 'detail', '', ( #66 ) ) ;
#113 = CARTESIAN_POINT ( 'NONE',  ( 2.880472104545584703E-13, 5.999999999999989342, 82.50000000000000000 ) ) ;
#114 = CLOSED_SHELL ( 'NONE', ( #128, #170, #96, #155 ) ) ;
#115 = DIRECTION ( 'NONE',  ( 3.491481338843133355E-15, -1.217917285207545432E-16, 1.000000000000000000 ) ) ;
#116 = CARTESIAN_POINT ( 'NONE',  ( 2.897929511239800811E-13, 5.499999999999989342, 83.00000000000000000 ) ) ;
#117 = DIRECTION ( 'NONE',  ( 4.275831445896959482E-31, 1.000000000000000000, 1.224646799147353207E-16 ) ) ;
#118 = COORDINATED_UNIVERSAL_TIME_OFFSET ( 1, 0, .AHEAD. ) ;
#119 = COORDINATED_UNIVERSAL_TIME_OFFSET ( 1, 0, .AHEAD. ) ;
#120 = EDGE_LOOP ( 'NONE', ( #28 ) ) ;
#121 = PERSON_AND_ORGANIZATION ( #24, #15 ) ;
#122 = FACE_OUTER_BOUND ( 'NONE', #168, .T. ) ;
#123 = DIRECTION ( 'NONE',  ( -4.252335473556634068E-31, -1.000000000000000000, -1.217917285207545432E-16 ) ) ;
#124 = DIRECTION ( 'NONE',  ( -3.491481338843133355E-15, 1.224646799147353207E-16, -1.000000000000000000 ) ) ;
#125 = ADVANCED_BREP_SHAPE_REPRESENTATION ( '956993', ( #210, #65, #9 ), #156 ) ;
#126 = ORIENTED_EDGE ( 'NONE', *, *, #220, .T. ) ;
#127 = CARTESIAN_POINT ( 'NONE',  ( 0.0000000000000000000, 0.0000000000000000000, 0.0000000000000000000 ) ) ;
#128 = ADVANCED_FACE ( 'NONE', ( #172 ), #214, .F. ) ;
#129 = PLANE ( 'NONE',  #219 ) ;
#130 = CONICAL_SURFACE ( 'NONE', #110, 6.000000000000000000, 0.7853981633974482790 ) ;
#131 = DIRECTION ( 'NONE',  ( 0.0000000000000000000, 0.0000000000000000000, 1.000000000000000000 ) ) ;
#132 = LOCAL_TIME ( 9, 27, 0.0000000000000000000, #81 ) ;
#133 = DIRECTION ( 'NONE',  ( 1.000000000000000000, 0.0000000000000000000, 0.0000000000000000000 ) ) ;
#134 = CC_DESIGN_PERSON_AND_ORGANIZATION_ASSIGNMENT ( #180, #154, ( #66 ) ) ;
#135 = CARTESIAN_POINT ( 'NONE',  ( 6.982962677686262766E-16, -2.435834570415089386E-17, 0.1999999999999998723 ) ) ;
#136 = APPROVAL_STATUS ( 'not_yet_approved' ) ;
#137 = APPROVAL_PERSON_ORGANIZATION ( #182, #149, #138 ) ;
#138 = APPROVAL_ROLE ( '' ) ;
#139 = APPROVAL_ROLE ( '' ) ;
#140 = DIRECTION ( 'NONE',  ( -4.172848212839010723E-31, -1.000000000000000000, -1.219727444046192488E-16 ) ) ;
#141 = DIRECTION ( 'NONE',  ( 0.0000000000000000000, 1.000000000000000000, 0.0000000000000000000 ) ) ;
#142 = CONICAL_SURFACE ( 'NONE', #70, 6.000000000000000000, 0.7853981633974524978 ) ;
#143 = APPROVAL_ROLE ( '' ) ;
#144 = DIRECTION ( 'NONE',  ( -3.491481338843133355E-15, 1.224646799147353207E-16, -1.000000000000000000 ) ) ;
#145 = ADVANCED_FACE ( 'NONE', ( #62, #208 ), #161, .T. ) ;
#146 = CARTESIAN_POINT ( 'NONE',  ( 8.728703347107833388E-14, -3.061616997868383043E-15, 25.00000000000000000 ) ) ;
#147 = ORIENTED_EDGE ( 'NONE', *, *, #181, .F. ) ;
#148 = DIRECTION ( 'NONE',  ( 4.275831445896958607E-31, 1.000000000000000000, 1.224646799147353207E-16 ) ) ;
#149 = APPROVAL ( #136, 'UNSPECIFIED' ) ;
#150 = CARTESIAN_POINT ( 'NONE',  ( -4.932709149325694783E-30, -5.799999999999998046, -1.412784050840752287E-15 ) ) ;
#151 = CIRCLE ( 'NONE', #74, 6.000000000000000000 ) ;
#152 = PLANE ( 'NONE',  #196 ) ;
#153 = DATE_AND_TIME ( #98, #27 ) ;
#154 = PERSON_AND_ORGANIZATION_ROLE ( 'design_owner' ) ;
#155 = ADVANCED_FACE ( 'NONE', ( #92 ), #129, .F. ) ;
#156 =( GEOMETRIC_REPRESENTATION_CONTEXT ( 3 ) GLOBAL_UNCERTAINTY_ASSIGNED_CONTEXT ( ( #185 ) ) GLOBAL_UNIT_ASSIGNED_CONTEXT ( ( #72, #176, #17 ) ) REPRESENTATION_CONTEXT ( 'NONE', 'WORKASPACE' ) );
#157 = PERSON_AND_ORGANIZATION_ROLE ( 'creator' ) ;
#158 = DIRECTION ( 'NONE',  ( -4.275831445896958607E-31, -1.000000000000000000, -1.224646799147353207E-16 ) ) ;
#159 = DIRECTION ( 'NONE',  ( 0.0000000000000000000, 1.000000000000000000, 0.0000000000000000000 ) ) ;
#160 = FACE_OUTER_BOUND ( 'NONE', #120, .T. ) ;
#161 = CYLINDRICAL_SURFACE ( 'NONE', #64, 6.000000000000000000 ) ;
#162 = LOCAL_TIME ( 9, 27, 0.0000000000000000000, #29 ) ;
#163 = CARTESIAN_POINT ( 'NONE',  ( 0.0000000000000000000, 0.0000000000000000000, 0.0000000000000000000 ) ) ;
#164 = CC_DESIGN_APPROVAL ( #207, ( #200 ) ) ;
#165 = CALENDAR_DATE ( 2021, 17, 11 ) ;
#166 = AXIS2_PLACEMENT_3D ( 'NONE', #34, #107, #123 ) ;
#167 = DATE_AND_TIME ( #165, #132 ) ;
#168 = EDGE_LOOP ( 'NONE', ( #30 ) ) ;
#169 = PERSON_AND_ORGANIZATION ( #24, #15 ) ;
#170 = ADVANCED_FACE ( 'NONE', ( #174, #22 ), #218, .T. ) ;
#171 = EDGE_LOOP ( 'NONE', ( #86 ) ) ;
#172 = FACE_OUTER_BOUND ( 'NONE', #33, .T. ) ;
#173 = AXIS2_PLACEMENT_3D ( 'NONE', #12, #124, #159 ) ;
#174 = FACE_OUTER_BOUND ( 'NONE', #202, .T. ) ;
#175 = CC_DESIGN_PERSON_AND_ORGANIZATION_ASSIGNMENT ( #169, #47, ( #103 ) ) ;
#176 =( NAMED_UNIT ( * ) PLANE_ANGLE_UNIT ( ) SI_UNIT ( $, .RADIAN. ) );
#177 = VERTEX_POINT ( 'NONE', #150 ) ;
#178 = APPROVAL_DATE_TIME ( #153, #149 ) ;
#179 = SECURITY_CLASSIFICATION_LEVEL ( 'unclassified' ) ;
#180 = PERSON_AND_ORGANIZATION ( #24, #15 ) ;
#181 = EDGE_CURVE ( 'NONE', #88, #88, #44, .T. ) ;
#182 = PERSON_AND_ORGANIZATION ( #24, #15 ) ;
#183 = CARTESIAN_POINT ( 'NONE',  ( 6.982962677686262766E-16, -2.435834570415089386E-17, 0.1999999999999998723 ) ) ;
#184 = ORIENTED_EDGE ( 'NONE', *, *, #76, .F. ) ;
#185 = UNCERTAINTY_MEASURE_WITH_UNIT (LENGTH_MEASURE( 1.000000000000000082E-05 ), #72, 'distance_accuracy_value', 'NONE');
#186 = ADVANCED_FACE ( 'NONE', ( #35 ), #152, .T. ) ;
#187 = DIRECTION ( 'NONE',  ( -4.275831445896958607E-31, -1.000000000000000000, -1.224646799147353207E-16 ) ) ;
#188 = APPLICATION_CONTEXT ( 'configuration controlled 3d designs of mechanical parts and assemblies' ) ;
#189 = VERTEX_POINT ( 'NONE', #13 ) ;
#190 = AXIS2_PLACEMENT_3D ( 'NONE', #18, #71, #53 ) ;
#191 = CARTESIAN_POINT ( 'NONE',  ( 8.728703347107833388E-14, 5.999999999999996447, 25.00000000000000000 ) ) ;
#192 = MECHANICAL_CONTEXT ( 'NONE', #188, 'mechanical' ) ;
#193 = CARTESIAN_POINT ( 'NONE',  ( 2.897929511239800811E-13, 4.124339402320093095E-32, 83.00000000000000000 ) ) ;
#194 = CC_DESIGN_APPROVAL ( #149, ( #111 ) ) ;
#195 = PERSON_AND_ORGANIZATION_ROLE ( 'classification_officer' ) ;
#196 = AXIS2_PLACEMENT_3D ( 'NONE', #108, #43, #148 ) ;
#197 = DATE_AND_TIME ( #4, #162 ) ;
#198 = PERSON_AND_ORGANIZATION ( #24, #15 ) ;
#199 = CARTESIAN_POINT ( 'NONE',  ( 2.880472104545584703E-13, -1.010333609296566392E-14, 82.50000000000000000 ) ) ;
#200 = SECURITY_CLASSIFICATION ( '', '', #179 ) ;
#201 = DIRECTION ( 'NONE',  ( 3.491481338843133355E-15, -1.217917285207545432E-16, 1.000000000000000000 ) ) ;
#202 = EDGE_LOOP ( 'NONE', ( #213 ) ) ;
#203 = ORIENTED_EDGE ( 'NONE', *, *, #31, .F. ) ;
#204 = CARTESIAN_POINT ( 'NONE',  ( 8.728703347107833388E-14, 4.499279347985567350E-32, 25.00000000000000000 ) ) ;
#205 = VERTEX_POINT ( 'NONE', #40 ) ;
#206 = PRODUCT_DEFINITION_SHAPE ( 'NONE', 'NONE',  #111 ) ;
#207 = APPROVAL ( #59, 'UNSPECIFIED' ) ;
#208 = FACE_OUTER_BOUND ( 'NONE', #11, .T. ) ;
#209 = APPROVAL_PERSON_ORGANIZATION ( #7, #207, #143 ) ;
#210 = MANIFOLD_SOLID_BREP ( 'Corps-Déplacer/Copier1[1]', #114 ) ;
#211 = PERSON_AND_ORGANIZATION ( #24, #15 ) ;
#212 = DATE_TIME_ROLE ( 'creation_date' ) ;
#213 = ORIENTED_EDGE ( 'NONE', *, *, #31, .T. ) ;
#214 = PLANE ( 'NONE',  #37 ) ;
#215 = DIRECTION ( 'NONE',  ( 0.0000000000000000000, 1.000000000000000000, 0.0000000000000000000 ) ) ;
#216 = EDGE_LOOP ( 'NONE', ( #203 ) ) ;
#217 = EDGE_LOOP ( 'NONE', ( #10 ) ) ;
#218 = CYLINDRICAL_SURFACE ( 'NONE', #21, 6.000000000000000000 ) ;
#219 = AXIS2_PLACEMENT_3D ( 'NONE', #193, #52, #222 ) ;
#220 = EDGE_CURVE ( 'NONE', #189, #189, #104, .T. ) ;
#221 = DIRECTION ( 'NONE',  ( 4.275831445896959482E-31, 1.000000000000000000, 1.224646799147353207E-16 ) ) ;
#222 = DIRECTION ( 'NONE',  ( 4.275831445896958607E-31, 1.000000000000000000, 1.224646799147353207E-16 ) ) ;
#223 = AXIS2_PLACEMENT_3D ( 'NONE', #49, #144, #105 ) ;
ENDSEC;
END-ISO-10303-21;
