ISO-10303-21;
HEADER;
FILE_DESCRIPTION (( 'STEP AP203' ),
    '1' );
FILE_NAME ('956958.step',
    '2021-11-01T12:23:55',
    ( '' ),
    ( '' ),
    'SwSTEP 2.0',
    'SolidWorks 2019',
    '' );
FILE_SCHEMA (( 'CONFIG_CONTROL_DESIGN' ));
ENDSEC;

DATA;
#1 = MECHANICAL_CONTEXT ( 'NONE', #16, 'mechanical' ) ;
#2 = ORIENTED_EDGE ( 'NONE', *, *, #191, .F. ) ;
#3 = AXIS2_PLACEMENT_3D ( 'NONE', #232, #198, #80 ) ;
#4 = PERSON_AND_ORGANIZATION_ROLE ( 'creator' ) ;
#5 = EDGE_LOOP ( 'NONE', ( #2 ) ) ;
#6 = CARTESIAN_POINT ( 'NONE',  ( 1.326762908760390423E-13, -4.653657836759941941E-15, 38.00000000000000000 ) ) ;
#7 = CARTESIAN_POINT ( 'NONE',  ( -8.551680453529350800E-31, 2.999525725151307090E-32, -2.449298628175645296E-16 ) ) ;
#8 = DIRECTION ( 'NONE',  ( -4.275831445896958607E-31, -1.000000000000000000, -1.224646799147353207E-16 ) ) ;
#9 = CC_DESIGN_PERSON_AND_ORGANIZATION_ASSIGNMENT ( #172, #4, ( #201 ) ) ;
#10 = APPLICATION_CONTEXT ( 'configuration controlled 3d designs of mechanical parts and assemblies' ) ;
#11 = CARTESIAN_POINT ( 'NONE',  ( 4.189777606611756871E-15, -1.463091523002511100E-16, 1.199999999999999067 ) ) ;
#12 = CLOSED_SHELL ( 'NONE', ( #92, #143, #33 ) ) ;
#13 = PRODUCT_DEFINITION_SHAPE ( 'NONE', 'NONE',  #64 ) ;
#14 = PERSON ( 'UNSPECIFIED', 'UNSPECIFIED', 'UNSPECIFIED', ('UNSPECIFIED'), ('UNSPECIFIED'), ('UNSPECIFIED') ) ;
#15 = DATE_AND_TIME ( #97, #159 ) ;
#16 = APPLICATION_CONTEXT ( 'configuration controlled 3d designs of mechanical parts and assemblies' ) ;
#17 = CARTESIAN_POINT ( 'NONE',  ( 2.204860355900260246E-14, -1.499999999999995559, 6.314971045014430295 ) ) ;
#18 = ORIENTED_EDGE ( 'NONE', *, *, #177, .T. ) ;
#19 = CIRCLE ( 'NONE', #234, 1.499999999999996669 ) ;
#20 = APPROVAL_DATE_TIME ( #171, #140 ) ;
#21 = CARTESIAN_POINT ( 'NONE',  ( 4.189777606611756871E-15, -0.2000000000000003719, 1.199999999999999067 ) ) ;
#22 = VERTEX_POINT ( 'NONE', #17 ) ;
#23 = COORDINATED_UNIVERSAL_TIME_OFFSET ( 1, 0, .AHEAD. ) ;
#24 = ORIENTED_EDGE ( 'NONE', *, *, #200, .F. ) ;
#25 = CIRCLE ( 'NONE', #130, 0.2681483474218603336 ) ;
#26 = DIRECTION ( 'NONE',  ( 3.491481338843133355E-15, -1.224646799147353207E-16, 1.000000000000000000 ) ) ;
#27 = CYLINDRICAL_SURFACE ( 'NONE', #217, 1.499999999999994671 ) ;
#28 = CC_DESIGN_APPROVAL ( #132, ( #64 ) ) ;
#29 = DIRECTION ( 'NONE',  ( -3.491481338843133355E-15, 1.224646799147353207E-16, -1.000000000000000000 ) ) ;
#30 = DIRECTION ( 'NONE',  ( 3.491481338843133355E-15, -1.219242935835426903E-16, 1.000000000000000000 ) ) ;
#31 = LOCAL_TIME ( 13, 23, 55.00000000000000000, #153 ) ;
#32 = CONICAL_SURFACE ( 'NONE', #173, 2.499999999999995559, 0.2617993877991429685 ) ;
#33 = ADVANCED_FACE ( 'NONE', ( #175 ), #85, .F. ) ;
#34 = DATE_AND_TIME ( #114, #31 ) ;
#35 = APPROVAL_DATE_TIME ( #15, #44 ) ;
#36 = EDGE_LOOP ( 'NONE', ( #187 ) ) ;
#37 = EDGE_LOOP ( 'NONE', ( #119 ) ) ;
#38 = DATE_TIME_ROLE ( 'classification_date' ) ;
#39 = VERTEX_POINT ( 'NONE', #59 ) ;
#40 = APPROVAL_DATE_TIME ( #71, #132 ) ;
#41 = EDGE_LOOP ( 'NONE', ( #170 ) ) ;
#42 = SECURITY_CLASSIFICATION_LEVEL ( 'unclassified' ) ;
#43 = DIRECTION ( 'NONE',  ( -4.275831445896958607E-31, -1.000000000000000000, -1.224646799147353207E-16 ) ) ;
#44 = APPROVAL ( #131, 'UNSPECIFIED' ) ;
#45 = DIRECTION ( 'NONE',  ( 0.0000000000000000000, -1.000000000000000000, 0.0000000000000000000 ) ) ;
#46 = FACE_OUTER_BOUND ( 'NONE', #151, .T. ) ;
#47 = DIRECTION ( 'NONE',  ( 0.0000000000000000000, -1.000000000000000000, 0.0000000000000000000 ) ) ;
#48 = CIRCLE ( 'NONE', #56, 1.499999999999994671 ) ;
#49 = CC_DESIGN_PERSON_AND_ORGANIZATION_ASSIGNMENT ( #52, #89, ( #64 ) ) ;
#50 = PLANE ( 'NONE',  #138 ) ;
#51 = ADVANCED_FACE ( 'NONE', ( #104, #126 ), #165, .F. ) ;
#52 = PERSON_AND_ORGANIZATION ( #14, #166 ) ;
#53 = SECURITY_CLASSIFICATION ( '', '', #42 ) ;
#54 = DIRECTION ( 'NONE',  ( -3.491481338843133355E-15, 1.224646799147353207E-16, -1.000000000000000000 ) ) ;
#55 = VERTEX_POINT ( 'NONE', #150 ) ;
#56 = AXIS2_PLACEMENT_3D ( 'NONE', #101, #78, #45 ) ;
#57 = ORIENTED_EDGE ( 'NONE', *, *, #181, .T. ) ;
#58 = APPROVAL_PERSON_ORGANIZATION ( #190, #44, #205 ) ;
#59 = CARTESIAN_POINT ( 'NONE',  ( 4.189777606611756871E-15, -0.2000000000000003719, 1.199999999999999067 ) ) ;
#60 = PERSON_AND_ORGANIZATION_ROLE ( 'classification_officer' ) ;
#61 = EDGE_CURVE ( 'NONE', #22, #22, #48, .T. ) ;
#62 = CARTESIAN_POINT ( 'NONE',  ( 4.189777606611756871E-15, -1.463091523002511100E-16, 1.199999999999999067 ) ) ;
#63 = ORIENTED_EDGE ( 'NONE', *, *, #194, .T. ) ;
#64 = PRODUCT_DEFINITION ( 'UNKNOWN', '', #201, #230 ) ;
#65 = CARTESIAN_POINT ( 'NONE',  ( -2.436850086750124941E-30, 8.509603705756836796E-32, -6.979416042239396095E-16 ) ) ;
#66 = CARTESIAN_POINT ( 'NONE',  ( 3.507898930924413341E-14, -1.224976041994648368E-15, 10.04702185258340741 ) ) ;
#67 = FACE_BOUND ( 'NONE', #100, .T. ) ;
#68 = ADVANCED_BREP_SHAPE_REPRESENTATION ( '956958', ( #111, #112, #204 ), #224 ) ;
#69 = DATE_TIME_ROLE ( 'creation_date' ) ;
#70 = VERTEX_POINT ( 'NONE', #202 ) ;
#71 = DATE_AND_TIME ( #210, #182 ) ;
#72 = EDGE_LOOP ( 'NONE', ( #154 ) ) ;
#73 = PRODUCT ( '956958', '956958', '', ( #1 ) ) ;
#74 = PERSON_AND_ORGANIZATION ( #14, #166 ) ;
#75 = ORIENTED_EDGE ( 'NONE', *, *, #200, .T. ) ;
#76 = AXIS2_PLACEMENT_3D ( 'NONE', #65, #162, #233 ) ;
#77 = CARTESIAN_POINT ( 'NONE',  ( 1.326762908760390423E-13, -4.653657836759941941E-15, 38.00000000000000000 ) ) ;
#78 = DIRECTION ( 'NONE',  ( -3.491481338843133355E-15, 1.219242935835426903E-16, -1.000000000000000000 ) ) ;
#79 = CIRCLE ( 'NONE', #196, 1.199999999999995959 ) ;
#80 = DIRECTION ( 'NONE',  ( 4.275831445896958607E-31, 1.000000000000000000, 1.224646799147353207E-16 ) ) ;
#81 = CC_DESIGN_DATE_AND_TIME_ASSIGNMENT ( #34, #69, ( #64 ) ) ;
#82 = CC_DESIGN_APPROVAL ( #140, ( #53 ) ) ;
#83 = DIRECTION ( 'NONE',  ( -4.256963957985708889E-31, -1.000000000000000000, -1.219242935835426903E-16 ) ) ;
#84 = DIRECTION ( 'NONE',  ( 3.491481338843133355E-15, -1.219242935835426903E-16, 1.000000000000000000 ) ) ;
#85 = PLANE ( 'NONE',  #107 ) ;
#86 = CC_DESIGN_PERSON_AND_ORGANIZATION_ASSIGNMENT ( #211, #60, ( #53 ) ) ;
#87 = EDGE_CURVE ( 'NONE', #70, #70, #79, .T. ) ;
#88 = FACE_OUTER_BOUND ( 'NONE', #242, .T. ) ;
#89 = PERSON_AND_ORGANIZATION_ROLE ( 'creator' ) ;
#90 = DIRECTION ( 'NONE',  ( 0.0000000000000000000, 1.000000000000000000, 0.0000000000000000000 ) ) ;
#91 = VERTEX_POINT ( 'NONE', #21 ) ;
#92 = ADVANCED_FACE ( 'NONE', ( #228 ), #158, .T. ) ;
#93 = AXIS2_PLACEMENT_3D ( 'NONE', #77, #54, #90 ) ;
#94 = EDGE_LOOP ( 'NONE', ( #149 ) ) ;
#95 = EDGE_LOOP ( 'NONE', ( #18 ) ) ;
#96 = DATE_AND_TIME ( #189, #239 ) ;
#97 = CALENDAR_DATE ( 2021, 1, 11 ) ;
#98 = FACE_BOUND ( 'NONE', #72, .T. ) ;
#99 = ORIENTED_EDGE ( 'NONE', *, *, #194, .F. ) ;
#100 = EDGE_LOOP ( 'NONE', ( #63 ) ) ;
#101 = CARTESIAN_POINT ( 'NONE',  ( 2.204860355900260246E-14, -7.699483836639107347E-16, 6.314971045014430295 ) ) ;
#102 = FACE_OUTER_BOUND ( 'NONE', #41, .T. ) ;
#103 = CIRCLE ( 'NONE', #207, 0.2000000000000002331 ) ;
#104 = FACE_OUTER_BOUND ( 'NONE', #156, .T. ) ;
#105 = DIRECTION ( 'NONE',  ( 0.0000000000000000000, 1.000000000000000000, 0.0000000000000000000 ) ) ;
#106 = DIRECTION ( 'NONE',  ( 0.0000000000000000000, -1.000000000000000000, 0.0000000000000000000 ) ) ;
#107 = AXIS2_PLACEMENT_3D ( 'NONE', #7, #26, #43 ) ;
#108 = AXIS2_PLACEMENT_3D ( 'NONE', #62, #203, #147 ) ;
#109 = ADVANCED_FACE ( 'NONE', ( #46, #161 ), #27, .T. ) ;
#110 =( LENGTH_UNIT ( ) NAMED_UNIT ( * ) SI_UNIT ( .MILLI., .METRE. ) );
#111 = MANIFOLD_SOLID_BREP ( 'Corps-Déplacer/Copier1[1]', #222 ) ;
#112 = MANIFOLD_SOLID_BREP ( 'Corps-Déplacer/Copier1[2]', #12 ) ;
#113 = ADVANCED_FACE ( 'NONE', ( #67, #102 ), #32, .T. ) ;
#114 = CALENDAR_DATE ( 2021, 1, 11 ) ;
#115 = PERSON_AND_ORGANIZATION_ROLE ( 'design_owner' ) ;
#116 = CC_DESIGN_SECURITY_CLASSIFICATION ( #53, ( #201 ) ) ;
#117 = CARTESIAN_POINT ( 'NONE',  ( 1.316288464743861212E-13, 1.499999999999992228, 37.69999999999999574 ) ) ;
#118 = COORDINATED_UNIVERSAL_TIME_OFFSET ( 1, 0, .AHEAD. ) ;
#119 = ORIENTED_EDGE ( 'NONE', *, *, #191, .T. ) ;
#120 = SHAPE_DEFINITION_REPRESENTATION ( #13, #68 ) ;
#121 = UNCERTAINTY_MEASURE_WITH_UNIT (LENGTH_MEASURE( 1.000000000000000082E-05 ), #110, 'distance_accuracy_value', 'NONE');
#122 = DIRECTION ( 'NONE',  ( 4.275831445896958607E-31, 1.000000000000000000, 1.224646799147352961E-16 ) ) ;
#123 = CC_DESIGN_PERSON_AND_ORGANIZATION_ASSIGNMENT ( #74, #115, ( #73 ) ) ;
#124 = DIRECTION ( 'NONE',  ( 0.0000000000000000000, 1.000000000000000000, 0.0000000000000000000 ) ) ;
#125 = AXIS2_PLACEMENT_3D ( 'NONE', #195, #215, #8 ) ;
#126 = FACE_OUTER_BOUND ( 'NONE', #174, .T. ) ;
#127 = DIRECTION ( 'NONE',  ( 3.491481338843133355E-15, -1.219242935835426903E-16, 1.000000000000000000 ) ) ;
#128 = CARTESIAN_POINT ( 'NONE',  ( 5.997101338837014041E-15, -2.094218107804334090E-16, 1.717638090205027890 ) ) ;
#129 = CIRCLE ( 'NONE', #76, 0.2000000000000000944 ) ;
#130 = AXIS2_PLACEMENT_3D ( 'NONE', #128, #30, #106 ) ;
#131 = APPROVAL_STATUS ( 'not_yet_approved' ) ;
#132 = APPROVAL ( #241, 'UNSPECIFIED' ) ;
#133 = CARTESIAN_POINT ( 'NONE',  ( 0.0000000000000000000, 0.0000000000000000000, 0.0000000000000000000 ) ) ;
#134 = AXIS2_PLACEMENT_3D ( 'NONE', #213, #127, #83 ) ;
#135 = APPLICATION_PROTOCOL_DEFINITION ( 'international standard', 'config_control_design', 1994, #10 ) ;
#136 = PERSON_AND_ORGANIZATION_ROLE ( 'design_supplier' ) ;
#137 = EDGE_LOOP ( 'NONE', ( #223 ) ) ;
#138 = AXIS2_PLACEMENT_3D ( 'NONE', #164, #236, #146 ) ;
#139 = CYLINDRICAL_SURFACE ( 'NONE', #134, 0.2000000000000001499 ) ;
#140 = APPROVAL ( #185, 'UNSPECIFIED' ) ;
#141 = DIRECTION ( 'NONE',  ( 3.491481338843133355E-15, -1.219242935835426903E-16, 1.000000000000000000 ) ) ;
#142 = CARTESIAN_POINT ( 'NONE',  ( 4.189777606611756871E-15, 0.0000000000000000000, 1.199999999999999067 ) ) ;
#143 = ADVANCED_FACE ( 'NONE', ( #176, #145 ), #139, .T. ) ;
#144 = CONICAL_SURFACE ( 'NONE', #93, 1.199999999999995959, 0.7853981633974468357 ) ;
#145 = FACE_OUTER_BOUND ( 'NONE', #5, .T. ) ;
#146 = DIRECTION ( 'NONE',  ( -4.275831445896958607E-31, -1.000000000000000000, -1.224646799147353207E-16 ) ) ;
#147 = DIRECTION ( 'NONE',  ( 0.0000000000000000000, -1.000000000000000000, 0.0000000000000000000 ) ) ;
#148 = LOCAL_TIME ( 13, 23, 55.00000000000000000, #227 ) ;
#149 = ORIENTED_EDGE ( 'NONE', *, *, #177, .F. ) ;
#150 = CARTESIAN_POINT ( 'NONE',  ( 5.997101338837014041E-15, -0.2681483474218605556, 1.717638090205027890 ) ) ;
#151 = EDGE_LOOP ( 'NONE', ( #57 ) ) ;
#152 = ADVANCED_FACE ( 'NONE', ( #231 ), #179, .F. ) ;
#153 = COORDINATED_UNIVERSAL_TIME_OFFSET ( 1, 0, .AHEAD. ) ;
#154 = ORIENTED_EDGE ( 'NONE', *, *, #87, .T. ) ;
#155 = CARTESIAN_POINT ( 'NONE',  ( -2.521989365909838996E-30, -0.2000000000000000944, -7.223264629406481279E-16 ) ) ;
#156 = EDGE_LOOP ( 'NONE', ( #75 ) ) ;
#157 = PERSON_AND_ORGANIZATION ( #14, #166 ) ;
#158 = PLANE ( 'NONE',  #125 ) ;
#159 = LOCAL_TIME ( 13, 23, 55.00000000000000000, #23 ) ;
#160 = CARTESIAN_POINT ( 'NONE',  ( 0.0000000000000000000, 0.0000000000000000000, 0.0000000000000000000 ) ) ;
#161 = FACE_OUTER_BOUND ( 'NONE', #36, .T. ) ;
#162 = DIRECTION ( 'NONE',  ( 3.491481338843133355E-15, -1.219242935835426903E-16, 1.000000000000000000 ) ) ;
#163 = APPROVAL_PERSON_ORGANIZATION ( #167, #132, #186 ) ;
#164 = CARTESIAN_POINT ( 'NONE',  ( 4.189777606611758449E-15, -1.734723475976811532E-16, 1.199999999999999734 ) ) ;
#165 = TOROIDAL_SURFACE ( 'NONE', #180, 2.200000000000000178, 2.000000000000000000 ) ;
#166 = ORGANIZATION ( 'UNSPECIFIED', 'UNSPECIFIED', '' ) ;
#167 = PERSON_AND_ORGANIZATION ( #14, #166 ) ;
#168 = ORIENTED_EDGE ( 'NONE', *, *, #87, .F. ) ;
#169 = DIRECTION ( 'NONE',  ( 0.0000000000000000000, 0.0000000000000000000, 1.000000000000000000 ) ) ;
#170 = ORIENTED_EDGE ( 'NONE', *, *, #61, .T. ) ;
#171 = DATE_AND_TIME ( #192, #148 ) ;
#172 = PERSON_AND_ORGANIZATION ( #14, #166 ) ;
#173 = AXIS2_PLACEMENT_3D ( 'NONE', #66, #84, #178 ) ;
#174 = EDGE_LOOP ( 'NONE', ( #99 ) ) ;
#175 = FACE_OUTER_BOUND ( 'NONE', #94, .T. ) ;
#176 = FACE_OUTER_BOUND ( 'NONE', #95, .T. ) ;
#177 = EDGE_CURVE ( 'NONE', #219, #219, #129, .T. ) ;
#178 = DIRECTION ( 'NONE',  ( 0.0000000000000000000, -1.000000000000000000, 0.0000000000000000000 ) ) ;
#179 = PLANE ( 'NONE',  #3 ) ;
#180 = AXIS2_PLACEMENT_3D ( 'NONE', #142, #141, #214 ) ;
#181 = EDGE_CURVE ( 'NONE', #240, #240, #19, .T. ) ;
#182 = LOCAL_TIME ( 13, 23, 55.00000000000000000, #118 ) ;
#183 = FACE_OUTER_BOUND ( 'NONE', #137, .T. ) ;
#184 =( NAMED_UNIT ( * ) PLANE_ANGLE_UNIT ( ) SI_UNIT ( $, .RADIAN. ) );
#185 = APPROVAL_STATUS ( 'not_yet_approved' ) ;
#186 = APPROVAL_ROLE ( '' ) ;
#187 = ORIENTED_EDGE ( 'NONE', *, *, #61, .F. ) ;
#188 = DIRECTION ( 'NONE',  ( 1.000000000000000000, 0.0000000000000000000, 0.0000000000000000000 ) ) ;
#189 = CALENDAR_DATE ( 2021, 1, 11 ) ;
#190 = PERSON_AND_ORGANIZATION ( #14, #166 ) ;
#191 = EDGE_CURVE ( 'NONE', #39, #39, #103, .T. ) ;
#192 = CALENDAR_DATE ( 2021, 1, 11 ) ;
#193 = DIRECTION ( 'NONE',  ( -3.491481338843133355E-15, 1.224646799147353207E-16, -1.000000000000000000 ) ) ;
#194 = EDGE_CURVE ( 'NONE', #55, #55, #25, .T. ) ;
#195 = CARTESIAN_POINT ( 'NONE',  ( 4.189777606611758449E-15, -1.734723475976811532E-16, 1.199999999999999734 ) ) ;
#196 = AXIS2_PLACEMENT_3D ( 'NONE', #6, #193, #124 ) ;
#197 = APPROVAL_PERSON_ORGANIZATION ( #209, #140, #225 ) ;
#198 = DIRECTION ( 'NONE',  ( -3.491481338843133355E-15, 1.224646799147353207E-16, -1.000000000000000000 ) ) ;
#199 = CARTESIAN_POINT ( 'NONE',  ( 1.316288464743861212E-13, -4.616918432785521081E-15, 37.69999999999999574 ) ) ;
#200 = EDGE_CURVE ( 'NONE', #91, #91, #237, .T. ) ;
#201 = PRODUCT_DEFINITION_FORMATION_WITH_SPECIFIED_SOURCE ( 'ANY', '', #73, .NOT_KNOWN. ) ;
#202 = CARTESIAN_POINT ( 'NONE',  ( 1.326762908760390423E-13, 1.199999999999991518, 38.00000000000000000 ) ) ;
#203 = DIRECTION ( 'NONE',  ( 3.491481338843133355E-15, -1.219242935835426903E-16, 1.000000000000000000 ) ) ;
#204 = AXIS2_PLACEMENT_3D ( 'NONE', #133, #169, #188 ) ;
#205 = APPROVAL_ROLE ( '' ) ;
#206 = CC_DESIGN_DATE_AND_TIME_ASSIGNMENT ( #96, #38, ( #53 ) ) ;
#207 = AXIS2_PLACEMENT_3D ( 'NONE', #11, #216, #47 ) ;
#208 =( NAMED_UNIT ( * ) SI_UNIT ( $, .STERADIAN. ) SOLID_ANGLE_UNIT ( ) );
#209 = PERSON_AND_ORGANIZATION ( #14, #166 ) ;
#210 = CALENDAR_DATE ( 2021, 1, 11 ) ;
#211 = PERSON_AND_ORGANIZATION ( #14, #166 ) ;
#212 = EDGE_LOOP ( 'NONE', ( #168 ) ) ;
#213 = CARTESIAN_POINT ( 'NONE',  ( 0.0000000000000000000, 0.0000000000000000000, 0.0000000000000000000 ) ) ;
#214 = DIRECTION ( 'NONE',  ( -4.320190849422040846E-31, -1.000000000000000000, -1.219242935835426903E-16 ) ) ;
#215 = DIRECTION ( 'NONE',  ( 3.491481338843133355E-15, -1.224646799147353207E-16, 1.000000000000000000 ) ) ;
#216 = DIRECTION ( 'NONE',  ( 3.491481338843133355E-15, -1.219242935835426903E-16, 1.000000000000000000 ) ) ;
#217 = AXIS2_PLACEMENT_3D ( 'NONE', #160, #235, #122 ) ;
#218 = ADVANCED_FACE ( 'NONE', ( #88 ), #50, .F. ) ;
#219 = VERTEX_POINT ( 'NONE', #155 ) ;
#220 = APPLICATION_PROTOCOL_DEFINITION ( 'international standard', 'config_control_design', 1994, #16 ) ;
#221 = CC_DESIGN_PERSON_AND_ORGANIZATION_ASSIGNMENT ( #157, #136, ( #201 ) ) ;
#222 = CLOSED_SHELL ( 'NONE', ( #109, #238, #152, #113, #51, #218 ) ) ;
#223 = ORIENTED_EDGE ( 'NONE', *, *, #181, .F. ) ;
#224 =( GEOMETRIC_REPRESENTATION_CONTEXT ( 3 ) GLOBAL_UNCERTAINTY_ASSIGNED_CONTEXT ( ( #121 ) ) GLOBAL_UNIT_ASSIGNED_CONTEXT ( ( #110, #184, #208 ) ) REPRESENTATION_CONTEXT ( 'NONE', 'WORKASPACE' ) );
#225 = APPROVAL_ROLE ( '' ) ;
#226 = COORDINATED_UNIVERSAL_TIME_OFFSET ( 1, 0, .AHEAD. ) ;
#227 = COORDINATED_UNIVERSAL_TIME_OFFSET ( 1, 0, .AHEAD. ) ;
#228 = FACE_OUTER_BOUND ( 'NONE', #37, .T. ) ;
#229 = CC_DESIGN_APPROVAL ( #44, ( #201 ) ) ;
#230 = DESIGN_CONTEXT ( 'detailed design', #10, 'design' ) ;
#231 = FACE_OUTER_BOUND ( 'NONE', #212, .T. ) ;
#232 = CARTESIAN_POINT ( 'NONE',  ( 1.326762908760390423E-13, 8.998558695971047118E-33, 38.00000000000000000 ) ) ;
#233 = DIRECTION ( 'NONE',  ( -4.256963957985703634E-31, -1.000000000000000000, -1.219242935835427889E-16 ) ) ;
#234 = AXIS2_PLACEMENT_3D ( 'NONE', #199, #29, #105 ) ;
#235 = DIRECTION ( 'NONE',  ( -3.491481338843133355E-15, 1.224646799147353207E-16, -1.000000000000000000 ) ) ;
#236 = DIRECTION ( 'NONE',  ( 3.491481338843133355E-15, -1.224646799147353207E-16, 1.000000000000000000 ) ) ;
#237 = CIRCLE ( 'NONE', #108, 0.2000000000000002331 ) ;
#238 = ADVANCED_FACE ( 'NONE', ( #183, #98 ), #144, .T. ) ;
#239 = LOCAL_TIME ( 13, 23, 55.00000000000000000, #226 ) ;
#240 = VERTEX_POINT ( 'NONE', #117 ) ;
#241 = APPROVAL_STATUS ( 'not_yet_approved' ) ;
#242 = EDGE_LOOP ( 'NONE', ( #24 ) ) ;
#243 = PRODUCT_RELATED_PRODUCT_CATEGORY ( 'detail', '', ( #73 ) ) ;
ENDSEC;
END-ISO-10303-21;
