ISO-10303-21;
HEADER;
FILE_DESCRIPTION (( 'STEP AP203' ),
    '1' );
FILE_NAME ('956957.step',
    '2021-11-01T10:35:32',
    ( '' ),
    ( '' ),
    'SwSTEP 2.0',
    'SolidWorks 2019',
    '' );
FILE_SCHEMA (( 'CONFIG_CONTROL_DESIGN' ));
ENDSEC;

DATA;
#1 = PLANE ( 'NONE',  #45 ) ;
#2 = COORDINATED_UNIVERSAL_TIME_OFFSET ( 1, 0, .AHEAD. ) ;
#3 = CONICAL_SURFACE ( 'NONE', #136, 2.499999999999995559, 0.2617993877991429685 ) ;
#4 = DIRECTION ( 'NONE',  ( 0.0000000000000000000, -1.000000000000000000, 0.0000000000000000000 ) ) ;
#5 = PERSON_AND_ORGANIZATION_ROLE ( 'creator' ) ;
#6 = CARTESIAN_POINT ( 'NONE',  ( 5.997101338837014041E-15, -0.2681483474218605556, 1.717638090205027890 ) ) ;
#7 = DIRECTION ( 'NONE',  ( 3.491481338843133355E-15, -1.219242935835426903E-16, 1.000000000000000000 ) ) ;
#8 = CARTESIAN_POINT ( 'NONE',  ( 4.189777606611756871E-15, 0.0000000000000000000, 1.199999999999999067 ) ) ;
#9 = PERSON_AND_ORGANIZATION ( #165, #198 ) ;
#10 = CC_DESIGN_DATE_AND_TIME_ASSIGNMENT ( #58, #117, ( #215 ) ) ;
#11 = VERTEX_POINT ( 'NONE', #149 ) ;
#12 = CC_DESIGN_APPROVAL ( #184, ( #215 ) ) ;
#13 = EDGE_LOOP ( 'NONE', ( #158 ) ) ;
#14 = APPLICATION_CONTEXT ( 'configuration controlled 3d designs of mechanical parts and assemblies' ) ;
#15 = EDGE_LOOP ( 'NONE', ( #138 ) ) ;
#16 = CARTESIAN_POINT ( 'NONE',  ( 1.326762908760390423E-13, 8.998558695971047118E-33, 38.00000000000000000 ) ) ;
#17 = CC_DESIGN_PERSON_AND_ORGANIZATION_ASSIGNMENT ( #62, #188, ( #83 ) ) ;
#18 = DIRECTION ( 'NONE',  ( 0.0000000000000000000, -1.000000000000000000, 0.0000000000000000000 ) ) ;
#19 = AXIS2_PLACEMENT_3D ( 'NONE', #116, #38, #80 ) ;
#20 = DIRECTION ( 'NONE',  ( 0.0000000000000000000, -1.000000000000000000, 0.0000000000000000000 ) ) ;
#21 = CARTESIAN_POINT ( 'NONE',  ( 4.189777606611758449E-15, -1.734723475976811532E-16, 1.199999999999999734 ) ) ;
#22 = CARTESIAN_POINT ( 'NONE',  ( 1.326762908760390423E-13, -4.653657836759941941E-15, 38.00000000000000000 ) ) ;
#23 = ADVANCED_FACE ( 'NONE', ( #179 ), #224, .F. ) ;
#24 = CIRCLE ( 'NONE', #31, 0.2000000000000000944 ) ;
#25 = CARTESIAN_POINT ( 'NONE',  ( 2.204860355900260246E-14, -1.499999999999995559, 6.314971045014430295 ) ) ;
#26 = APPLICATION_PROTOCOL_DEFINITION ( 'international standard', 'config_control_design', 1994, #163 ) ;
#27 = PLANE ( 'NONE',  #157 ) ;
#28 = APPROVAL_ROLE ( '' ) ;
#29 = ORIENTED_EDGE ( 'NONE', *, *, #40, .F. ) ;
#30 = ORIENTED_EDGE ( 'NONE', *, *, #86, .T. ) ;
#31 = AXIS2_PLACEMENT_3D ( 'NONE', #228, #213, #43 ) ;
#32 = CC_DESIGN_PERSON_AND_ORGANIZATION_ASSIGNMENT ( #77, #173, ( #83 ) ) ;
#33 = PLANE ( 'NONE',  #140 ) ;
#34 = DIRECTION ( 'NONE',  ( -4.275831445896958607E-31, -1.000000000000000000, -1.224646799147353207E-16 ) ) ;
#35 = FACE_OUTER_BOUND ( 'NONE', #123, .T. ) ;
#36 = AXIS2_PLACEMENT_3D ( 'NONE', #126, #204, #4 ) ;
#37 = EDGE_LOOP ( 'NONE', ( #197 ) ) ;
#38 = DIRECTION ( 'NONE',  ( 0.0000000000000000000, 0.0000000000000000000, 1.000000000000000000 ) ) ;
#39 = FACE_OUTER_BOUND ( 'NONE', #85, .T. ) ;
#40 = EDGE_CURVE ( 'NONE', #11, #11, #210, .T. ) ;
#41 = FACE_OUTER_BOUND ( 'NONE', #46, .T. ) ;
#42 = COORDINATED_UNIVERSAL_TIME_OFFSET ( 1, 0, .AHEAD. ) ;
#43 = DIRECTION ( 'NONE',  ( -4.256963957985703634E-31, -1.000000000000000000, -1.219242935835427889E-16 ) ) ;
#44 = DATE_AND_TIME ( #214, #222 ) ;
#45 = AXIS2_PLACEMENT_3D ( 'NONE', #72, #55, #34 ) ;
#46 = EDGE_LOOP ( 'NONE', ( #235 ) ) ;
#47 = MANIFOLD_SOLID_BREP ( 'Corps-Déplacer/Copier1[1]', #53 ) ;
#48 = CARTESIAN_POINT ( 'NONE',  ( 5.997101338837014041E-15, -2.094218107804334090E-16, 1.717638090205027890 ) ) ;
#49 = CARTESIAN_POINT ( 'NONE',  ( 0.0000000000000000000, 0.0000000000000000000, 0.0000000000000000000 ) ) ;
#50 = DIRECTION ( 'NONE',  ( 0.0000000000000000000, 1.000000000000000000, 0.0000000000000000000 ) ) ;
#51 = PRODUCT_RELATED_PRODUCT_CATEGORY ( 'detail', '', ( #199 ) ) ;
#52 = APPROVAL_DATE_TIME ( #154, #139 ) ;
#53 = CLOSED_SHELL ( 'NONE', ( #137, #194, #23, #122, #218, #108 ) ) ;
#54 = APPROVAL_PERSON_ORGANIZATION ( #186, #120, #100 ) ;
#55 = DIRECTION ( 'NONE',  ( 3.491481338843133355E-15, -1.224646799147353207E-16, 1.000000000000000000 ) ) ;
#56 = PERSON_AND_ORGANIZATION_ROLE ( 'classification_officer' ) ;
#57 = FACE_OUTER_BOUND ( 'NONE', #90, .T. ) ;
#58 = DATE_AND_TIME ( #191, #75 ) ;
#59 =( NAMED_UNIT ( * ) PLANE_ANGLE_UNIT ( ) SI_UNIT ( $, .RADIAN. ) );
#60 = DESIGN_CONTEXT ( 'detailed design', #163, 'design' ) ;
#61 = VERTEX_POINT ( 'NONE', #133 ) ;
#62 = PERSON_AND_ORGANIZATION ( #165, #198 ) ;
#63 = CC_DESIGN_DATE_AND_TIME_ASSIGNMENT ( #44, #121, ( #178 ) ) ;
#64 = ORIENTED_EDGE ( 'NONE', *, *, #159, .F. ) ;
#65 = AXIS2_PLACEMENT_3D ( 'NONE', #66, #168, #141 ) ;
#66 = CARTESIAN_POINT ( 'NONE',  ( 1.326762908760390423E-13, -4.653657836759941941E-15, 38.00000000000000000 ) ) ;
#67 = AXIS2_PLACEMENT_3D ( 'NONE', #93, #71, #129 ) ;
#68 = LOCAL_TIME ( 11, 35, 32.00000000000000000, #146 ) ;
#69 = ADVANCED_FACE ( 'NONE', ( #182, #57 ), #187, .T. ) ;
#70 = DIRECTION ( 'NONE',  ( 3.491481338843133355E-15, -1.224646799147353207E-16, 1.000000000000000000 ) ) ;
#71 = DIRECTION ( 'NONE',  ( 3.491481338843133355E-15, -1.219242935835426903E-16, 1.000000000000000000 ) ) ;
#72 = CARTESIAN_POINT ( 'NONE',  ( 4.189777606611758449E-15, -1.734723475976811532E-16, 1.199999999999999734 ) ) ;
#73 = SHAPE_DEFINITION_REPRESENTATION ( #217, #161 ) ;
#74 = AXIS2_PLACEMENT_3D ( 'NONE', #221, #183, #92 ) ;
#75 = LOCAL_TIME ( 11, 35, 32.00000000000000000, #42 ) ;
#76 = EDGE_LOOP ( 'NONE', ( #88 ) ) ;
#77 = PERSON_AND_ORGANIZATION ( #165, #198 ) ;
#78 =( LENGTH_UNIT ( ) NAMED_UNIT ( * ) SI_UNIT ( .MILLI., .METRE. ) );
#79 = EDGE_CURVE ( 'NONE', #192, #192, #195, .T. ) ;
#80 = DIRECTION ( 'NONE',  ( 1.000000000000000000, 0.0000000000000000000, 0.0000000000000000000 ) ) ;
#81 = VERTEX_POINT ( 'NONE', #153 ) ;
#82 = AXIS2_PLACEMENT_3D ( 'NONE', #160, #206, #226 ) ;
#83 = PRODUCT_DEFINITION_FORMATION_WITH_SPECIFIED_SOURCE ( 'ANY', '', #199, .NOT_KNOWN. ) ;
#84 = PERSON_AND_ORGANIZATION_ROLE ( 'design_owner' ) ;
#85 = EDGE_LOOP ( 'NONE', ( #147 ) ) ;
#86 = EDGE_CURVE ( 'NONE', #209, #209, #220, .T. ) ;
#87 = LOCAL_TIME ( 11, 35, 32.00000000000000000, #2 ) ;
#88 = ORIENTED_EDGE ( 'NONE', *, *, #79, .F. ) ;
#89 = AXIS2_PLACEMENT_3D ( 'NONE', #49, #145, #200 ) ;
#90 = EDGE_LOOP ( 'NONE', ( #156 ) ) ;
#91 = LOCAL_TIME ( 11, 35, 32.00000000000000000, #102 ) ;
#92 = DIRECTION ( 'NONE',  ( 4.275831445896958607E-31, 1.000000000000000000, 1.224646799147352961E-16 ) ) ;
#93 = CARTESIAN_POINT ( 'NONE',  ( 4.189777606611756871E-15, -1.463091523002511100E-16, 1.199999999999999067 ) ) ;
#94 = APPROVAL_DATE_TIME ( #130, #120 ) ;
#95 = FACE_OUTER_BOUND ( 'NONE', #155, .T. ) ;
#96 = PERSON_AND_ORGANIZATION ( #165, #198 ) ;
#97 = CARTESIAN_POINT ( 'NONE',  ( -8.551680453529350800E-31, 2.999525725151307090E-32, -2.449298628175645296E-16 ) ) ;
#98 = SECURITY_CLASSIFICATION_LEVEL ( 'unclassified' ) ;
#99 = DIRECTION ( 'NONE',  ( -4.320190849422040846E-31, -1.000000000000000000, -1.219242935835426903E-16 ) ) ;
#100 = APPROVAL_ROLE ( '' ) ;
#101 = CARTESIAN_POINT ( 'NONE',  ( 1.326762908760390423E-13, 1.199999999999991518, 38.00000000000000000 ) ) ;
#102 = COORDINATED_UNIVERSAL_TIME_OFFSET ( 1, 0, .AHEAD. ) ;
#103 = CC_DESIGN_PERSON_AND_ORGANIZATION_ASSIGNMENT ( #167, #56, ( #178 ) ) ;
#104 = CC_DESIGN_PERSON_AND_ORGANIZATION_ASSIGNMENT ( #96, #84, ( #199 ) ) ;
#105 =( GEOMETRIC_REPRESENTATION_CONTEXT ( 3 ) GLOBAL_UNCERTAINTY_ASSIGNED_CONTEXT ( ( #114 ) ) GLOBAL_UNIT_ASSIGNED_CONTEXT ( ( #78, #59, #150 ) ) REPRESENTATION_CONTEXT ( 'NONE', 'WORKASPACE' ) );
#106 = EDGE_CURVE ( 'NONE', #151, #151, #240, .T. ) ;
#107 = FACE_BOUND ( 'NONE', #135, .T. ) ;
#108 = ADVANCED_FACE ( 'NONE', ( #35 ), #33, .F. ) ;
#109 = CIRCLE ( 'NONE', #169, 0.2681483474218603336 ) ;
#110 = DIRECTION ( 'NONE',  ( -3.491481338843133355E-15, 1.219242935835426903E-16, -1.000000000000000000 ) ) ;
#111 = CYLINDRICAL_SURFACE ( 'NONE', #74, 1.499999999999994671 ) ;
#112 = AXIS2_PLACEMENT_3D ( 'NONE', #185, #110, #20 ) ;
#113 = DIRECTION ( 'NONE',  ( -3.491481338843133355E-15, 1.224646799147353207E-16, -1.000000000000000000 ) ) ;
#114 = UNCERTAINTY_MEASURE_WITH_UNIT (LENGTH_MEASURE( 1.000000000000000082E-05 ), #78, 'distance_accuracy_value', 'NONE');
#115 = DIRECTION ( 'NONE',  ( -3.491481338843133355E-15, 1.224646799147353207E-16, -1.000000000000000000 ) ) ;
#116 = CARTESIAN_POINT ( 'NONE',  ( 0.0000000000000000000, 0.0000000000000000000, 0.0000000000000000000 ) ) ;
#117 = DATE_TIME_ROLE ( 'creation_date' ) ;
#118 = CLOSED_SHELL ( 'NONE', ( #180, #69, #237 ) ) ;
#119 = DIRECTION ( 'NONE',  ( 3.491481338843133355E-15, -1.224646799147353207E-16, 1.000000000000000000 ) ) ;
#120 = APPROVAL ( #134, 'UNSPECIFIED' ) ;
#121 = DATE_TIME_ROLE ( 'classification_date' ) ;
#122 = ADVANCED_FACE ( 'NONE', ( #203, #238 ), #3, .T. ) ;
#123 = EDGE_LOOP ( 'NONE', ( #64 ) ) ;
#124 = AXIS2_PLACEMENT_3D ( 'NONE', #22, #113, #50 ) ;
#125 = DIRECTION ( 'NONE',  ( 3.491481338843133355E-15, -1.219242935835426903E-16, 1.000000000000000000 ) ) ;
#126 = CARTESIAN_POINT ( 'NONE',  ( 4.189777606611756871E-15, -1.463091523002511100E-16, 1.199999999999999067 ) ) ;
#127 = CARTESIAN_POINT ( 'NONE',  ( 3.507898930924413341E-14, -1.224976041994648368E-15, 10.04702185258340741 ) ) ;
#128 = MANIFOLD_SOLID_BREP ( 'Corps-Déplacer/Copier1[2]', #118 ) ;
#129 = DIRECTION ( 'NONE',  ( 0.0000000000000000000, -1.000000000000000000, 0.0000000000000000000 ) ) ;
#130 = DATE_AND_TIME ( #152, #87 ) ;
#131 = APPROVAL_STATUS ( 'not_yet_approved' ) ;
#132 = DIRECTION ( 'NONE',  ( 3.491481338843133355E-15, -1.219242935835426903E-16, 1.000000000000000000 ) ) ;
#133 = CARTESIAN_POINT ( 'NONE',  ( 4.189777606611756871E-15, -0.2000000000000003719, 1.199999999999999067 ) ) ;
#134 = APPROVAL_STATUS ( 'not_yet_approved' ) ;
#135 = EDGE_LOOP ( 'NONE', ( #162 ) ) ;
#136 = AXIS2_PLACEMENT_3D ( 'NONE', #127, #125, #18 ) ;
#137 = ADVANCED_FACE ( 'NONE', ( #39, #143 ), #111, .T. ) ;
#138 = ORIENTED_EDGE ( 'NONE', *, *, #106, .T. ) ;
#139 = APPROVAL ( #193, 'UNSPECIFIED' ) ;
#140 = AXIS2_PLACEMENT_3D ( 'NONE', #21, #70, #243 ) ;
#141 = DIRECTION ( 'NONE',  ( 0.0000000000000000000, 1.000000000000000000, 0.0000000000000000000 ) ) ;
#142 = CC_DESIGN_PERSON_AND_ORGANIZATION_ASSIGNMENT ( #9, #5, ( #215 ) ) ;
#143 = FACE_OUTER_BOUND ( 'NONE', #37, .T. ) ;
#144 = EDGE_LOOP ( 'NONE', ( #223 ) ) ;
#145 = DIRECTION ( 'NONE',  ( 3.491481338843133355E-15, -1.219242935835426903E-16, 1.000000000000000000 ) ) ;
#146 = COORDINATED_UNIVERSAL_TIME_OFFSET ( 1, 0, .AHEAD. ) ;
#147 = ORIENTED_EDGE ( 'NONE', *, *, #40, .T. ) ;
#148 = APPLICATION_PROTOCOL_DEFINITION ( 'international standard', 'config_control_design', 1994, #14 ) ;
#149 = CARTESIAN_POINT ( 'NONE',  ( 1.316288464743861212E-13, 1.499999999999992228, 37.69999999999999574 ) ) ;
#150 =( NAMED_UNIT ( * ) SI_UNIT ( $, .STERADIAN. ) SOLID_ANGLE_UNIT ( ) );
#151 = VERTEX_POINT ( 'NONE', #230 ) ;
#152 = CALENDAR_DATE ( 2021, 1, 11 ) ;
#153 = CARTESIAN_POINT ( 'NONE',  ( -2.521989365909838996E-30, -0.2000000000000000944, -7.223264629406481279E-16 ) ) ;
#154 = DATE_AND_TIME ( #175, #91 ) ;
#155 = EDGE_LOOP ( 'NONE', ( #29 ) ) ;
#156 = ORIENTED_EDGE ( 'NONE', *, *, #106, .F. ) ;
#157 = AXIS2_PLACEMENT_3D ( 'NONE', #97, #119, #190 ) ;
#158 = ORIENTED_EDGE ( 'NONE', *, *, #202, .T. ) ;
#159 = EDGE_CURVE ( 'NONE', #61, #61, #176, .T. ) ;
#160 = CARTESIAN_POINT ( 'NONE',  ( 1.316288464743861212E-13, -4.616918432785521081E-15, 37.69999999999999574 ) ) ;
#161 = ADVANCED_BREP_SHAPE_REPRESENTATION ( '956957', ( #47, #128, #19 ), #105 ) ;
#162 = ORIENTED_EDGE ( 'NONE', *, *, #79, .T. ) ;
#163 = APPLICATION_CONTEXT ( 'configuration controlled 3d designs of mechanical parts and assemblies' ) ;
#164 = EDGE_LOOP ( 'NONE', ( #30 ) ) ;
#165 = PERSON ( 'UNSPECIFIED', 'UNSPECIFIED', 'UNSPECIFIED', ('UNSPECIFIED'), ('UNSPECIFIED'), ('UNSPECIFIED') ) ;
#166 = FACE_OUTER_BOUND ( 'NONE', #15, .T. ) ;
#167 = PERSON_AND_ORGANIZATION ( #165, #198 ) ;
#168 = DIRECTION ( 'NONE',  ( -3.491481338843133355E-15, 1.224646799147353207E-16, -1.000000000000000000 ) ) ;
#169 = AXIS2_PLACEMENT_3D ( 'NONE', #48, #7, #232 ) ;
#170 = PERSON_AND_ORGANIZATION ( #165, #198 ) ;
#171 = DATE_AND_TIME ( #208, #68 ) ;
#172 = VERTEX_POINT ( 'NONE', #6 ) ;
#173 = PERSON_AND_ORGANIZATION_ROLE ( 'creator' ) ;
#174 = FACE_OUTER_BOUND ( 'NONE', #144, .T. ) ;
#175 = CALENDAR_DATE ( 2021, 1, 11 ) ;
#176 = CIRCLE ( 'NONE', #67, 0.2000000000000002331 ) ;
#177 = CC_DESIGN_APPROVAL ( #139, ( #178 ) ) ;
#178 = SECURITY_CLASSIFICATION ( '', '', #98 ) ;
#179 = FACE_OUTER_BOUND ( 'NONE', #76, .T. ) ;
#180 = ADVANCED_FACE ( 'NONE', ( #166 ), #1, .T. ) ;
#181 = AXIS2_PLACEMENT_3D ( 'NONE', #16, #115, #205 ) ;
#182 = FACE_OUTER_BOUND ( 'NONE', #219, .T. ) ;
#183 = DIRECTION ( 'NONE',  ( -3.491481338843133355E-15, 1.224646799147353207E-16, -1.000000000000000000 ) ) ;
#184 = APPROVAL ( #131, 'UNSPECIFIED' ) ;
#185 = CARTESIAN_POINT ( 'NONE',  ( 2.204860355900260246E-14, -7.699483836639107347E-16, 6.314971045014430295 ) ) ;
#186 = PERSON_AND_ORGANIZATION ( #165, #198 ) ;
#187 = CYLINDRICAL_SURFACE ( 'NONE', #89, 0.2000000000000001499 ) ;
#188 = PERSON_AND_ORGANIZATION_ROLE ( 'design_supplier' ) ;
#189 = CC_DESIGN_APPROVAL ( #120, ( #83 ) ) ;
#190 = DIRECTION ( 'NONE',  ( -4.275831445896958607E-31, -1.000000000000000000, -1.224646799147353207E-16 ) ) ;
#191 = CALENDAR_DATE ( 2021, 1, 11 ) ;
#192 = VERTEX_POINT ( 'NONE', #101 ) ;
#193 = APPROVAL_STATUS ( 'not_yet_approved' ) ;
#194 = ADVANCED_FACE ( 'NONE', ( #95, #107 ), #216, .T. ) ;
#195 = CIRCLE ( 'NONE', #124, 1.199999999999995959 ) ;
#196 = APPROVAL_PERSON_ORGANIZATION ( #207, #139, #28 ) ;
#197 = ORIENTED_EDGE ( 'NONE', *, *, #86, .F. ) ;
#198 = ORGANIZATION ( 'UNSPECIFIED', 'UNSPECIFIED', '' ) ;
#199 = PRODUCT ( '956957', '956957', '', ( #227 ) ) ;
#200 = DIRECTION ( 'NONE',  ( -4.256963957985708889E-31, -1.000000000000000000, -1.219242935835426903E-16 ) ) ;
#201 = TOROIDAL_SURFACE ( 'NONE', #236, 2.200000000000000178, 2.000000000000000000 ) ;
#202 = EDGE_CURVE ( 'NONE', #172, #172, #109, .T. ) ;
#203 = FACE_BOUND ( 'NONE', #13, .T. ) ;
#204 = DIRECTION ( 'NONE',  ( 3.491481338843133355E-15, -1.219242935835426903E-16, 1.000000000000000000 ) ) ;
#205 = DIRECTION ( 'NONE',  ( 4.275831445896958607E-31, 1.000000000000000000, 1.224646799147353207E-16 ) ) ;
#206 = DIRECTION ( 'NONE',  ( -3.491481338843133355E-15, 1.224646799147353207E-16, -1.000000000000000000 ) ) ;
#207 = PERSON_AND_ORGANIZATION ( #165, #198 ) ;
#208 = CALENDAR_DATE ( 2021, 1, 11 ) ;
#209 = VERTEX_POINT ( 'NONE', #25 ) ;
#210 = CIRCLE ( 'NONE', #82, 1.499999999999996669 ) ;
#211 = APPROVAL_DATE_TIME ( #171, #184 ) ;
#212 = APPROVAL_PERSON_ORGANIZATION ( #170, #184, #229 ) ;
#213 = DIRECTION ( 'NONE',  ( 3.491481338843133355E-15, -1.219242935835426903E-16, 1.000000000000000000 ) ) ;
#214 = CALENDAR_DATE ( 2021, 1, 11 ) ;
#215 = PRODUCT_DEFINITION ( 'UNKNOWN', '', #83, #60 ) ;
#216 = CONICAL_SURFACE ( 'NONE', #65, 1.199999999999995959, 0.7853981633974468357 ) ;
#217 = PRODUCT_DEFINITION_SHAPE ( 'NONE', 'NONE',  #215 ) ;
#218 = ADVANCED_FACE ( 'NONE', ( #239, #41 ), #201, .F. ) ;
#219 = EDGE_LOOP ( 'NONE', ( #242 ) ) ;
#220 = CIRCLE ( 'NONE', #112, 1.499999999999994671 ) ;
#221 = CARTESIAN_POINT ( 'NONE',  ( 0.0000000000000000000, 0.0000000000000000000, 0.0000000000000000000 ) ) ;
#222 = LOCAL_TIME ( 11, 35, 32.00000000000000000, #225 ) ;
#223 = ORIENTED_EDGE ( 'NONE', *, *, #234, .F. ) ;
#224 = PLANE ( 'NONE',  #181 ) ;
#225 = COORDINATED_UNIVERSAL_TIME_OFFSET ( 1, 0, .AHEAD. ) ;
#226 = DIRECTION ( 'NONE',  ( 0.0000000000000000000, 1.000000000000000000, 0.0000000000000000000 ) ) ;
#227 = MECHANICAL_CONTEXT ( 'NONE', #14, 'mechanical' ) ;
#228 = CARTESIAN_POINT ( 'NONE',  ( -2.436850086750124941E-30, 8.509603705756836796E-32, -6.979416042239396095E-16 ) ) ;
#229 = APPROVAL_ROLE ( '' ) ;
#230 = CARTESIAN_POINT ( 'NONE',  ( 4.189777606611756871E-15, -0.2000000000000003719, 1.199999999999999067 ) ) ;
#231 = ORIENTED_EDGE ( 'NONE', *, *, #159, .T. ) ;
#232 = DIRECTION ( 'NONE',  ( 0.0000000000000000000, -1.000000000000000000, 0.0000000000000000000 ) ) ;
#233 = EDGE_LOOP ( 'NONE', ( #231 ) ) ;
#234 = EDGE_CURVE ( 'NONE', #81, #81, #24, .T. ) ;
#235 = ORIENTED_EDGE ( 'NONE', *, *, #202, .F. ) ;
#236 = AXIS2_PLACEMENT_3D ( 'NONE', #8, #132, #99 ) ;
#237 = ADVANCED_FACE ( 'NONE', ( #174 ), #27, .F. ) ;
#238 = FACE_OUTER_BOUND ( 'NONE', #164, .T. ) ;
#239 = FACE_OUTER_BOUND ( 'NONE', #233, .T. ) ;
#240 = CIRCLE ( 'NONE', #36, 0.2000000000000002331 ) ;
#241 = CC_DESIGN_SECURITY_CLASSIFICATION ( #178, ( #83 ) ) ;
#242 = ORIENTED_EDGE ( 'NONE', *, *, #234, .T. ) ;
#243 = DIRECTION ( 'NONE',  ( -4.275831445896958607E-31, -1.000000000000000000, -1.224646799147353207E-16 ) ) ;
ENDSEC;
END-ISO-10303-21;
