ISO-10303-21;
HEADER;
FILE_DESCRIPTION (( 'STEP AP203' ),
    '1' );
FILE_NAME ('956956.step',
    '2021-11-01T12:23:55',
    ( '' ),
    ( '' ),
    'SwSTEP 2.0',
    'SolidWorks 2019',
    '' );
FILE_SCHEMA (( 'CONFIG_CONTROL_DESIGN' ));
ENDSEC;

DATA;
#1 = CARTESIAN_POINT ( 'NONE',  ( 1.326762908760390423E-13, 1.199999999999991962, 38.00000000000000000 ) ) ;
#2 = AXIS2_PLACEMENT_3D ( 'NONE', #61, #113, #167 ) ;
#3 = EDGE_LOOP ( 'NONE', ( #241 ) ) ;
#4 = PERSON_AND_ORGANIZATION_ROLE ( 'creator' ) ;
#5 = APPROVAL_ROLE ( '' ) ;
#6 = DIRECTION ( 'NONE',  ( 0.0000000000000000000, -1.000000000000000000, 0.0000000000000000000 ) ) ;
#7 = CC_DESIGN_APPROVAL ( #20, ( #83 ) ) ;
#8 = FACE_OUTER_BOUND ( 'NONE', #143, .T. ) ;
#9 = PLANE ( 'NONE',  #46 ) ;
#10 = CARTESIAN_POINT ( 'NONE',  ( 3.470645268523155440E-14, -1.211966874736208483E-15, 9.940323122772634079 ) ) ;
#11 = CONICAL_SURFACE ( 'NONE', #25, 2.499999999999995559, 0.2617993877991429685 ) ;
#12 = CC_DESIGN_PERSON_AND_ORGANIZATION_ASSIGNMENT ( #56, #90, ( #199 ) ) ;
#13 = CIRCLE ( 'NONE', #177, 1.499999999999996669 ) ;
#14 = DIRECTION ( 'NONE',  ( 0.0000000000000000000, 0.0000000000000000000, 1.000000000000000000 ) ) ;
#15 = DIRECTION ( 'NONE',  ( 0.0000000000000000000, 1.000000000000000000, 0.0000000000000000000 ) ) ;
#16 = EDGE_LOOP ( 'NONE', ( #69 ) ) ;
#17 = CARTESIAN_POINT ( 'NONE',  ( 3.491481338843130200E-15, -1.219242935835425917E-16, 0.9999999999999991118 ) ) ;
#18 = PERSON_AND_ORGANIZATION ( #240, #117 ) ;
#19 = ORIENTED_EDGE ( 'NONE', *, *, #242, .F. ) ;
#20 = APPROVAL ( #142, 'UNSPECIFIED' ) ;
#21 =( GEOMETRIC_REPRESENTATION_CONTEXT ( 3 ) GLOBAL_UNCERTAINTY_ASSIGNED_CONTEXT ( ( #229 ) ) GLOBAL_UNIT_ASSIGNED_CONTEXT ( ( #172, #243, #206 ) ) REPRESENTATION_CONTEXT ( 'NONE', 'WORKASPACE' ) );
#22 = DIRECTION ( 'NONE',  ( 0.0000000000000000000, 1.000000000000000000, 0.0000000000000000000 ) ) ;
#23 = FACE_OUTER_BOUND ( 'NONE', #191, .T. ) ;
#24 = COORDINATED_UNIVERSAL_TIME_OFFSET ( 1, 0, .AHEAD. ) ;
#25 = AXIS2_PLACEMENT_3D ( 'NONE', #10, #149, #6 ) ;
#26 = APPROVAL_PERSON_ORGANIZATION ( #79, #174, #5 ) ;
#27 = DIRECTION ( 'NONE',  ( 3.491481338843133355E-15, -1.224646799147353207E-16, 1.000000000000000000 ) ) ;
#28 = MANIFOLD_SOLID_BREP ( 'Corps-Déplacer/Copier1[1]', #120 ) ;
#29 = DIRECTION ( 'NONE',  ( 3.491481338843133355E-15, -1.224646799147353207E-16, 1.000000000000000000 ) ) ;
#30 = AXIS2_PLACEMENT_3D ( 'NONE', #17, #92, #74 ) ;
#31 = CARTESIAN_POINT ( 'NONE',  ( 5.298805071068381059E-15, -0.2431483474218597840, 1.517638090205026158 ) ) ;
#32 = EDGE_LOOP ( 'NONE', ( #220 ) ) ;
#33 = COORDINATED_UNIVERSAL_TIME_OFFSET ( 1, 0, .AHEAD. ) ;
#34 = PERSON_AND_ORGANIZATION_ROLE ( 'creator' ) ;
#35 = COORDINATED_UNIVERSAL_TIME_OFFSET ( 1, 0, .AHEAD. ) ;
#36 = ADVANCED_FACE ( 'NONE', ( #118 ), #134, .T. ) ;
#37 = COORDINATED_UNIVERSAL_TIME_OFFSET ( 1, 0, .AHEAD. ) ;
#38 = AXIS2_PLACEMENT_3D ( 'NONE', #168, #131, #64 ) ;
#39 = FACE_OUTER_BOUND ( 'NONE', #3, .T. ) ;
#40 = FACE_BOUND ( 'NONE', #109, .T. ) ;
#41 = CARTESIAN_POINT ( 'NONE',  ( 3.491481338843133355E-15, 1.124819836996387185E-32, 1.000000000000000000 ) ) ;
#42 = FACE_OUTER_BOUND ( 'NONE', #203, .T. ) ;
#43 = PRODUCT_DEFINITION ( 'UNKNOWN', '', #83, #148 ) ;
#44 = AXIS2_PLACEMENT_3D ( 'NONE', #41, #29, #211 ) ;
#45 = CARTESIAN_POINT ( 'NONE',  ( 1.326762908760390423E-13, -4.653657836759941941E-15, 38.00000000000000000 ) ) ;
#46 = AXIS2_PLACEMENT_3D ( 'NONE', #154, #139, #197 ) ;
#47 = APPLICATION_PROTOCOL_DEFINITION ( 'international standard', 'config_control_design', 1994, #164 ) ;
#48 = LOCAL_TIME ( 13, 23, 55.00000000000000000, #37 ) ;
#49 = DATE_TIME_ROLE ( 'creation_date' ) ;
#50 = VERTEX_POINT ( 'NONE', #196 ) ;
#51 = ORIENTED_EDGE ( 'NONE', *, *, #238, .F. ) ;
#52 = ADVANCED_FACE ( 'NONE', ( #58, #226 ), #234, .T. ) ;
#53 = APPROVAL_ROLE ( '' ) ;
#54 = CIRCLE ( 'NONE', #189, 0.2431483474218595897 ) ;
#55 = EDGE_LOOP ( 'NONE', ( #145 ) ) ;
#56 = PERSON_AND_ORGANIZATION ( #240, #117 ) ;
#57 = PERSON_AND_ORGANIZATION_ROLE ( 'design_supplier' ) ;
#58 = FACE_OUTER_BOUND ( 'NONE', #93, .T. ) ;
#59 = CARTESIAN_POINT ( 'NONE',  ( 5.298805071068381059E-15, -1.850369520637246442E-16, 1.517638090205026158 ) ) ;
#60 = DIRECTION ( 'NONE',  ( 0.0000000000000000000, -1.000000000000000000, 0.0000000000000000000 ) ) ;
#61 = CARTESIAN_POINT ( 'NONE',  ( 3.491481338843130200E-15, -1.219242935835425917E-16, 0.9999999999999991118 ) ) ;
#62 = CC_DESIGN_SECURITY_CLASSIFICATION ( #138, ( #83 ) ) ;
#63 = CC_DESIGN_PERSON_AND_ORGANIZATION_ASSIGNMENT ( #162, #4, ( #43 ) ) ;
#64 = DIRECTION ( 'NONE',  ( -4.256963957985709765E-31, -1.000000000000000000, -1.219242935835426903E-16 ) ) ;
#65 = DATE_AND_TIME ( #219, #156 ) ;
#66 = CC_DESIGN_PERSON_AND_ORGANIZATION_ASSIGNMENT ( #208, #224, ( #138 ) ) ;
#67 = DATE_AND_TIME ( #122, #237 ) ;
#68 = VERTEX_POINT ( 'NONE', #88 ) ;
#69 = ORIENTED_EDGE ( 'NONE', *, *, #213, .T. ) ;
#70 = VERTEX_POINT ( 'NONE', #1 ) ;
#71 = CIRCLE ( 'NONE', #30, 0.1749999999999999056 ) ;
#72 = EDGE_LOOP ( 'NONE', ( #158 ) ) ;
#73 = EDGE_CURVE ( 'NONE', #68, #68, #114, .T. ) ;
#74 = DIRECTION ( 'NONE',  ( 0.0000000000000000000, -1.000000000000000000, 0.0000000000000000000 ) ) ;
#75 = PLANE ( 'NONE',  #76 ) ;
#76 = AXIS2_PLACEMENT_3D ( 'NONE', #187, #77, #165 ) ;
#77 = DIRECTION ( 'NONE',  ( 3.491481338843133355E-15, -1.224646799147353207E-16, 1.000000000000000000 ) ) ;
#78 = DIRECTION ( 'NONE',  ( -3.491481338843133355E-15, 1.224646799147353207E-16, -1.000000000000000000 ) ) ;
#79 = PERSON_AND_ORGANIZATION ( #240, #117 ) ;
#80 = DIRECTION ( 'NONE',  ( -3.491481338843133355E-15, 1.224646799147353207E-16, -1.000000000000000000 ) ) ;
#81 = ADVANCED_FACE ( 'NONE', ( #96 ), #210, .F. ) ;
#82 = AXIS2_PLACEMENT_3D ( 'NONE', #45, #173, #15 ) ;
#83 = PRODUCT_DEFINITION_FORMATION_WITH_SPECIFIED_SOURCE ( 'ANY', '', #199, .NOT_KNOWN. ) ;
#84 = CARTESIAN_POINT ( 'NONE',  ( 2.167606693499002029E-14, -7.569392164054707509E-16, 6.208272315203656078 ) ) ;
#85 = APPLICATION_CONTEXT ( 'configuration controlled 3d designs of mechanical parts and assemblies' ) ;
#86 = EDGE_CURVE ( 'NONE', #50, #50, #121, .T. ) ;
#87 = CALENDAR_DATE ( 2021, 1, 11 ) ;
#88 = CARTESIAN_POINT ( 'NONE',  ( -2.500704546119910220E-30, -0.1750000000000000167, -7.162302482614709243E-16 ) ) ;
#89 = AXIS2_PLACEMENT_3D ( 'NONE', #181, #14, #140 ) ;
#90 = PERSON_AND_ORGANIZATION_ROLE ( 'design_owner' ) ;
#91 = VERTEX_POINT ( 'NONE', #126 ) ;
#92 = DIRECTION ( 'NONE',  ( 3.491481338843133355E-15, -1.219242935835426903E-16, 1.000000000000000000 ) ) ;
#93 = EDGE_LOOP ( 'NONE', ( #184 ) ) ;
#94 = PRODUCT_RELATED_PRODUCT_CATEGORY ( 'detail', '', ( #199 ) ) ;
#95 = DIRECTION ( 'NONE',  ( 0.0000000000000000000, 1.000000000000000000, 0.0000000000000000000 ) ) ;
#96 = FACE_OUTER_BOUND ( 'NONE', #123, .T. ) ;
#97 = DIRECTION ( 'NONE',  ( -4.320569453562378787E-31, -1.000000000000000000, -1.219242935835426903E-16 ) ) ;
#98 = CARTESIAN_POINT ( 'NONE',  ( 0.0000000000000000000, 0.0000000000000000000, 0.0000000000000000000 ) ) ;
#99 = CARTESIAN_POINT ( 'NONE',  ( 1.316288464743861212E-13, -4.616918432785521081E-15, 37.69999999999999574 ) ) ;
#100 = CONICAL_SURFACE ( 'NONE', #125, 1.199999999999996403, 0.7853981633974461696 ) ;
#101 = APPROVAL_DATE_TIME ( #108, #147 ) ;
#102 = MANIFOLD_SOLID_BREP ( 'Corps-Déplacer/Copier1[2]', #236 ) ;
#103 = ORIENTED_EDGE ( 'NONE', *, *, #213, .F. ) ;
#104 = MECHANICAL_CONTEXT ( 'NONE', #164, 'mechanical' ) ;
#105 = EDGE_LOOP ( 'NONE', ( #223 ) ) ;
#106 = VERTEX_POINT ( 'NONE', #202 ) ;
#107 = ORIENTED_EDGE ( 'NONE', *, *, #195, .T. ) ;
#108 = DATE_AND_TIME ( #87, #228 ) ;
#109 = EDGE_LOOP ( 'NONE', ( #107 ) ) ;
#110 = EDGE_CURVE ( 'NONE', #216, #216, #13, .T. ) ;
#111 = CARTESIAN_POINT ( 'NONE',  ( 1.326762908760390423E-13, -4.653657836759941941E-15, 38.00000000000000000 ) ) ;
#112 = SHAPE_DEFINITION_REPRESENTATION ( #159, #176 ) ;
#113 = DIRECTION ( 'NONE',  ( 3.491481338843133355E-15, -1.219242935835426903E-16, 1.000000000000000000 ) ) ;
#114 = CIRCLE ( 'NONE', #137, 0.1750000000000000167 ) ;
#115 = ADVANCED_FACE ( 'NONE', ( #39 ), #75, .F. ) ;
#116 = FACE_OUTER_BOUND ( 'NONE', #105, .T. ) ;
#117 = ORGANIZATION ( 'UNSPECIFIED', 'UNSPECIFIED', '' ) ;
#118 = FACE_OUTER_BOUND ( 'NONE', #55, .T. ) ;
#119 = DIRECTION ( 'NONE',  ( 3.491481338843133355E-15, -1.219242935835426903E-16, 1.000000000000000000 ) ) ;
#120 = CLOSED_SHELL ( 'NONE', ( #136, #180, #205, #161, #192, #81 ) ) ;
#121 = CIRCLE ( 'NONE', #2, 0.1749999999999999056 ) ;
#122 = CALENDAR_DATE ( 2021, 1, 11 ) ;
#123 = EDGE_LOOP ( 'NONE', ( #141 ) ) ;
#124 = COORDINATED_UNIVERSAL_TIME_OFFSET ( 1, 0, .AHEAD. ) ;
#125 = AXIS2_PLACEMENT_3D ( 'NONE', #111, #80, #22 ) ;
#126 = CARTESIAN_POINT ( 'NONE',  ( 2.167606693499002029E-14, -1.499999999999995337, 6.208272315203656078 ) ) ;
#127 = APPROVAL_PERSON_ORGANIZATION ( #18, #20, #198 ) ;
#128 = APPLICATION_PROTOCOL_DEFINITION ( 'international standard', 'config_control_design', 1994, #85 ) ;
#129 = SECURITY_CLASSIFICATION_LEVEL ( 'unclassified' ) ;
#130 = APPROVAL_PERSON_ORGANIZATION ( #175, #147, #53 ) ;
#131 = DIRECTION ( 'NONE',  ( 3.491481338843133355E-15, -1.219242935835426903E-16, 1.000000000000000000 ) ) ;
#132 = DIRECTION ( 'NONE',  ( -4.275831445896958607E-31, -1.000000000000000000, -1.224646799147353207E-16 ) ) ;
#133 = CALENDAR_DATE ( 2021, 1, 11 ) ;
#134 = PLANE ( 'NONE',  #171 ) ;
#135 = DIRECTION ( 'NONE',  ( 0.0000000000000000000, -1.000000000000000000, 0.0000000000000000000 ) ) ;
#136 = ADVANCED_FACE ( 'NONE', ( #23, #8 ), #169, .T. ) ;
#137 = AXIS2_PLACEMENT_3D ( 'NONE', #232, #215, #193 ) ;
#138 = SECURITY_CLASSIFICATION ( '', '', #129 ) ;
#139 = DIRECTION ( 'NONE',  ( -3.491481338843133355E-15, 1.224646799147353207E-16, -1.000000000000000000 ) ) ;
#140 = DIRECTION ( 'NONE',  ( 1.000000000000000000, 0.0000000000000000000, 0.0000000000000000000 ) ) ;
#141 = ORIENTED_EDGE ( 'NONE', *, *, #86, .F. ) ;
#142 = APPROVAL_STATUS ( 'not_yet_approved' ) ;
#143 = EDGE_LOOP ( 'NONE', ( #103 ) ) ;
#144 = AXIS2_PLACEMENT_3D ( 'NONE', #84, #235, #135 ) ;
#145 = ORIENTED_EDGE ( 'NONE', *, *, #242, .T. ) ;
#146 = PERSON_AND_ORGANIZATION ( #240, #117 ) ;
#147 = APPROVAL ( #160, 'UNSPECIFIED' ) ;
#148 = DESIGN_CONTEXT ( 'detailed design', #85, 'design' ) ;
#149 = DIRECTION ( 'NONE',  ( 3.491481338843133355E-15, -1.219242935835426903E-16, 1.000000000000000000 ) ) ;
#150 = FACE_OUTER_BOUND ( 'NONE', #16, .T. ) ;
#151 = CARTESIAN_POINT ( 'NONE',  ( 3.491481338843129805E-15, 0.0000000000000000000, 0.9999999999999988898 ) ) ;
#152 = DIRECTION ( 'NONE',  ( 4.275831445896958607E-31, 1.000000000000000000, 1.224646799147352961E-16 ) ) ;
#153 = CC_DESIGN_APPROVAL ( #147, ( #43 ) ) ;
#154 = CARTESIAN_POINT ( 'NONE',  ( 1.326762908760390423E-13, 8.998558695971051224E-33, 38.00000000000000000 ) ) ;
#155 = TOROIDAL_SURFACE ( 'NONE', #222, 2.174999999999999822, 2.000000000000000000 ) ;
#156 = LOCAL_TIME ( 13, 23, 55.00000000000000000, #33 ) ;
#157 = CARTESIAN_POINT ( 'NONE',  ( 1.316288464743861212E-13, 1.499999999999992228, 37.69999999999999574 ) ) ;
#158 = ORIENTED_EDGE ( 'NONE', *, *, #238, .T. ) ;
#159 = PRODUCT_DEFINITION_SHAPE ( 'NONE', 'NONE',  #43 ) ;
#160 = APPROVAL_STATUS ( 'not_yet_approved' ) ;
#161 = ADVANCED_FACE ( 'NONE', ( #40, #150 ), #11, .T. ) ;
#162 = PERSON_AND_ORGANIZATION ( #240, #117 ) ;
#163 = DATE_TIME_ROLE ( 'classification_date' ) ;
#164 = APPLICATION_CONTEXT ( 'configuration controlled 3d designs of mechanical parts and assemblies' ) ;
#165 = DIRECTION ( 'NONE',  ( -4.275831445896958607E-31, -1.000000000000000000, -1.224646799147353207E-16 ) ) ;
#166 = LOCAL_TIME ( 13, 23, 55.00000000000000000, #24 ) ;
#167 = DIRECTION ( 'NONE',  ( 0.0000000000000000000, -1.000000000000000000, 0.0000000000000000000 ) ) ;
#168 = CARTESIAN_POINT ( 'NONE',  ( 0.0000000000000000000, 0.0000000000000000000, 0.0000000000000000000 ) ) ;
#169 = CYLINDRICAL_SURFACE ( 'NONE', #217, 1.499999999999994671 ) ;
#170 = CC_DESIGN_PERSON_AND_ORGANIZATION_ASSIGNMENT ( #204, #34, ( #83 ) ) ;
#171 = AXIS2_PLACEMENT_3D ( 'NONE', #214, #27, #132 ) ;
#172 =( LENGTH_UNIT ( ) NAMED_UNIT ( * ) SI_UNIT ( .MILLI., .METRE. ) );
#173 = DIRECTION ( 'NONE',  ( -3.491481338843133355E-15, 1.224646799147353207E-16, -1.000000000000000000 ) ) ;
#174 = APPROVAL ( #188, 'UNSPECIFIED' ) ;
#175 = PERSON_AND_ORGANIZATION ( #240, #117 ) ;
#176 = ADVANCED_BREP_SHAPE_REPRESENTATION ( '956956', ( #28, #102, #89 ), #21 ) ;
#177 = AXIS2_PLACEMENT_3D ( 'NONE', #99, #78, #95 ) ;
#178 = ORIENTED_EDGE ( 'NONE', *, *, #110, .T. ) ;
#179 = EDGE_LOOP ( 'NONE', ( #51 ) ) ;
#180 = ADVANCED_FACE ( 'NONE', ( #42, #185 ), #100, .T. ) ;
#181 = CARTESIAN_POINT ( 'NONE',  ( 0.0000000000000000000, 0.0000000000000000000, 0.0000000000000000000 ) ) ;
#182 = DATE_AND_TIME ( #225, #48 ) ;
#183 = CC_DESIGN_APPROVAL ( #174, ( #138 ) ) ;
#184 = ORIENTED_EDGE ( 'NONE', *, *, #73, .T. ) ;
#185 = FACE_BOUND ( 'NONE', #72, .T. ) ;
#186 = DATE_AND_TIME ( #133, #166 ) ;
#187 = CARTESIAN_POINT ( 'NONE',  ( -8.551680453529350800E-31, 2.999525725151307090E-32, -2.449298628175645296E-16 ) ) ;
#188 = APPROVAL_STATUS ( 'not_yet_approved' ) ;
#189 = AXIS2_PLACEMENT_3D ( 'NONE', #59, #119, #60 ) ;
#190 = FACE_OUTER_BOUND ( 'NONE', #179, .T. ) ;
#191 = EDGE_LOOP ( 'NONE', ( #178 ) ) ;
#192 = ADVANCED_FACE ( 'NONE', ( #116, #230 ), #155, .F. ) ;
#193 = DIRECTION ( 'NONE',  ( -4.256963957985700131E-31, -1.000000000000000000, -1.219242935835424684E-16 ) ) ;
#194 = CIRCLE ( 'NONE', #144, 1.499999999999994671 ) ;
#195 = EDGE_CURVE ( 'NONE', #239, #239, #54, .T. ) ;
#196 = CARTESIAN_POINT ( 'NONE',  ( 3.491481338843130200E-15, -0.1750000000000000167, 0.9999999999999991118 ) ) ;
#197 = DIRECTION ( 'NONE',  ( 4.275831445896958607E-31, 1.000000000000000000, 1.224646799147353207E-16 ) ) ;
#198 = APPROVAL_ROLE ( '' ) ;
#199 = PRODUCT ( '956956', '956956', '', ( #104 ) ) ;
#200 = CC_DESIGN_PERSON_AND_ORGANIZATION_ASSIGNMENT ( #146, #57, ( #83 ) ) ;
#201 = EDGE_LOOP ( 'NONE', ( #19 ) ) ;
#202 = CARTESIAN_POINT ( 'NONE',  ( 3.491481338843130200E-15, -0.1750000000000000167, 0.9999999999999991118 ) ) ;
#203 = EDGE_LOOP ( 'NONE', ( #207 ) ) ;
#204 = PERSON_AND_ORGANIZATION ( #240, #117 ) ;
#205 = ADVANCED_FACE ( 'NONE', ( #190 ), #9, .F. ) ;
#206 =( NAMED_UNIT ( * ) SI_UNIT ( $, .STERADIAN. ) SOLID_ANGLE_UNIT ( ) );
#207 = ORIENTED_EDGE ( 'NONE', *, *, #110, .F. ) ;
#208 = PERSON_AND_ORGANIZATION ( #240, #117 ) ;
#209 = APPROVAL_DATE_TIME ( #186, #174 ) ;
#210 = PLANE ( 'NONE',  #44 ) ;
#211 = DIRECTION ( 'NONE',  ( -4.275831445896958607E-31, -1.000000000000000000, -1.224646799147353207E-16 ) ) ;
#212 = DIRECTION ( 'NONE',  ( -3.491481338843133355E-15, 1.224646799147353207E-16, -1.000000000000000000 ) ) ;
#213 = EDGE_CURVE ( 'NONE', #91, #91, #194, .T. ) ;
#214 = CARTESIAN_POINT ( 'NONE',  ( 3.491481338843133355E-15, 1.124819836996387185E-32, 1.000000000000000000 ) ) ;
#215 = DIRECTION ( 'NONE',  ( 3.491481338843133355E-15, -1.219242935835426903E-16, 1.000000000000000000 ) ) ;
#216 = VERTEX_POINT ( 'NONE', #157 ) ;
#217 = AXIS2_PLACEMENT_3D ( 'NONE', #98, #212, #152 ) ;
#218 = CC_DESIGN_DATE_AND_TIME_ASSIGNMENT ( #65, #49, ( #43 ) ) ;
#219 = CALENDAR_DATE ( 2021, 1, 11 ) ;
#220 = ORIENTED_EDGE ( 'NONE', *, *, #195, .F. ) ;
#221 = APPROVAL_DATE_TIME ( #67, #20 ) ;
#222 = AXIS2_PLACEMENT_3D ( 'NONE', #151, #231, #97 ) ;
#223 = ORIENTED_EDGE ( 'NONE', *, *, #86, .T. ) ;
#224 = PERSON_AND_ORGANIZATION_ROLE ( 'classification_officer' ) ;
#225 = CALENDAR_DATE ( 2021, 1, 11 ) ;
#226 = FACE_OUTER_BOUND ( 'NONE', #201, .T. ) ;
#227 = CC_DESIGN_DATE_AND_TIME_ASSIGNMENT ( #182, #163, ( #138 ) ) ;
#228 = LOCAL_TIME ( 13, 23, 55.00000000000000000, #35 ) ;
#229 = UNCERTAINTY_MEASURE_WITH_UNIT (LENGTH_MEASURE( 1.000000000000000082E-05 ), #172, 'distance_accuracy_value', 'NONE');
#230 = FACE_OUTER_BOUND ( 'NONE', #32, .T. ) ;
#231 = DIRECTION ( 'NONE',  ( 3.491481338843133355E-15, -1.219242935835426903E-16, 1.000000000000000000 ) ) ;
#232 = CARTESIAN_POINT ( 'NONE',  ( -2.426207676855160202E-30, 8.472439872342221210E-32, -6.948934968843509585E-16 ) ) ;
#233 = CIRCLE ( 'NONE', #82, 1.199999999999996403 ) ;
#234 = CYLINDRICAL_SURFACE ( 'NONE', #38, 0.1749999999999999611 ) ;
#235 = DIRECTION ( 'NONE',  ( -3.491481338843133355E-15, 1.219242935835426903E-16, -1.000000000000000000 ) ) ;
#236 = CLOSED_SHELL ( 'NONE', ( #36, #52, #115 ) ) ;
#237 = LOCAL_TIME ( 13, 23, 55.00000000000000000, #124 ) ;
#238 = EDGE_CURVE ( 'NONE', #70, #70, #233, .T. ) ;
#239 = VERTEX_POINT ( 'NONE', #31 ) ;
#240 = PERSON ( 'UNSPECIFIED', 'UNSPECIFIED', 'UNSPECIFIED', ('UNSPECIFIED'), ('UNSPECIFIED'), ('UNSPECIFIED') ) ;
#241 = ORIENTED_EDGE ( 'NONE', *, *, #73, .F. ) ;
#242 = EDGE_CURVE ( 'NONE', #106, #106, #71, .T. ) ;
#243 =( NAMED_UNIT ( * ) PLANE_ANGLE_UNIT ( ) SI_UNIT ( $, .RADIAN. ) );
ENDSEC;
END-ISO-10303-21;
