ISO-10303-21;
HEADER;
FILE_DESCRIPTION (( 'STEP AP203' ),
    '1' );
FILE_NAME ('956955.step',
    '2021-11-01T10:35:31',
    ( '' ),
    ( '' ),
    'SwSTEP 2.0',
    'SolidWorks 2019',
    '' );
FILE_SCHEMA (( 'CONFIG_CONTROL_DESIGN' ));
ENDSEC;

DATA;
#1 = AXIS2_PLACEMENT_3D ( 'NONE', #161, #25, #83 ) ;
#2 = ORIENTED_EDGE ( 'NONE', *, *, #213, .T. ) ;
#3 = CARTESIAN_POINT ( 'NONE',  ( -2.500704546119910220E-30, -0.1750000000000000167, -7.162302482614709243E-16 ) ) ;
#4 = CALENDAR_DATE ( 2021, 1, 11 ) ;
#5 = MANIFOLD_SOLID_BREP ( 'Corps-Déplacer/Copier1[2]', #141 ) ;
#6 = ORIENTED_EDGE ( 'NONE', *, *, #231, .F. ) ;
#7 = CIRCLE ( 'NONE', #63, 0.2431483474218600338 ) ;
#8 = ORIENTED_EDGE ( 'NONE', *, *, #241, .F. ) ;
#9 = DIRECTION ( 'NONE',  ( 0.0000000000000000000, -1.000000000000000000, 0.0000000000000000000 ) ) ;
#10 = FACE_OUTER_BOUND ( 'NONE', #101, .T. ) ;
#11 = CARTESIAN_POINT ( 'NONE',  ( 1.326762908760390423E-13, 8.998558695971047118E-33, 38.00000000000000000 ) ) ;
#12 = FACE_OUTER_BOUND ( 'NONE', #150, .T. ) ;
#13 = FACE_OUTER_BOUND ( 'NONE', #195, .T. ) ;
#14 = AXIS2_PLACEMENT_3D ( 'NONE', #217, #138, #183 ) ;
#15 = APPROVAL_STATUS ( 'not_yet_approved' ) ;
#16 = CARTESIAN_POINT ( 'NONE',  ( 3.491481338843129805E-15, -0.1750000000000000167, 0.9999999999999988898 ) ) ;
#17 = VERTEX_POINT ( 'NONE', #223 ) ;
#18 = DATE_TIME_ROLE ( 'classification_date' ) ;
#19 = COORDINATED_UNIVERSAL_TIME_OFFSET ( 1, 0, .AHEAD. ) ;
#20 = AXIS2_PLACEMENT_3D ( 'NONE', #131, #188, #228 ) ;
#21 = EDGE_LOOP ( 'NONE', ( #116 ) ) ;
#22 = DATE_AND_TIME ( #209, #103 ) ;
#23 =( NAMED_UNIT ( * ) PLANE_ANGLE_UNIT ( ) SI_UNIT ( $, .RADIAN. ) );
#24 = ORIENTED_EDGE ( 'NONE', *, *, #78, .T. ) ;
#25 = DIRECTION ( 'NONE',  ( -3.491481338843133355E-15, 1.224646799147353207E-16, -1.000000000000000000 ) ) ;
#26 = CARTESIAN_POINT ( 'NONE',  ( 5.298805071068387370E-15, -1.850369520637248660E-16, 1.517638090205027934 ) ) ;
#27 = FACE_OUTER_BOUND ( 'NONE', #36, .T. ) ;
#28 = FACE_OUTER_BOUND ( 'NONE', #225, .T. ) ;
#29 = EDGE_LOOP ( 'NONE', ( #6 ) ) ;
#30 = EDGE_CURVE ( 'NONE', #171, #171, #129, .T. ) ;
#31 = AXIS2_PLACEMENT_3D ( 'NONE', #104, #216, #41 ) ;
#32 = AXIS2_PLACEMENT_3D ( 'NONE', #11, #143, #81 ) ;
#33 = APPROVAL_DATE_TIME ( #117, #37 ) ;
#34 = PERSON_AND_ORGANIZATION ( #98, #77 ) ;
#35 = PERSON_AND_ORGANIZATION ( #98, #77 ) ;
#36 = EDGE_LOOP ( 'NONE', ( #230 ) ) ;
#37 = APPROVAL ( #52, 'UNSPECIFIED' ) ;
#38 = ORIENTED_EDGE ( 'NONE', *, *, #78, .F. ) ;
#39 = EDGE_LOOP ( 'NONE', ( #2 ) ) ;
#40 = DIRECTION ( 'NONE',  ( -3.491481338843133355E-15, 1.224646799147353207E-16, -1.000000000000000000 ) ) ;
#41 = DIRECTION ( 'NONE',  ( -4.256963957985700131E-31, -1.000000000000000000, -1.219242935835424684E-16 ) ) ;
#42 = TOROIDAL_SURFACE ( 'NONE', #120, 2.174999999999999822, 2.000000000000000000 ) ;
#43 = CARTESIAN_POINT ( 'NONE',  ( 1.316288464743861212E-13, -4.616918432785521081E-15, 37.69999999999999574 ) ) ;
#44 = EDGE_CURVE ( 'NONE', #48, #48, #133, .T. ) ;
#45 = FACE_OUTER_BOUND ( 'NONE', #21, .T. ) ;
#46 = ADVANCED_FACE ( 'NONE', ( #28, #182 ), #61, .T. ) ;
#47 = CALENDAR_DATE ( 2021, 1, 11 ) ;
#48 = VERTEX_POINT ( 'NONE', #193 ) ;
#49 = AXIS2_PLACEMENT_3D ( 'NONE', #243, #221, #242 ) ;
#50 = DATE_AND_TIME ( #224, #160 ) ;
#51 = EDGE_CURVE ( 'NONE', #118, #118, #147, .T. ) ;
#52 = APPROVAL_STATUS ( 'not_yet_approved' ) ;
#53 = ORIENTED_EDGE ( 'NONE', *, *, #30, .F. ) ;
#54 = SHAPE_DEFINITION_REPRESENTATION ( #204, #169 ) ;
#55 = CONICAL_SURFACE ( 'NONE', #109, 2.499999999999995559, 0.2617993877991429130 ) ;
#56 = DIRECTION ( 'NONE',  ( 0.0000000000000000000, 0.0000000000000000000, 1.000000000000000000 ) ) ;
#57 = CC_DESIGN_PERSON_AND_ORGANIZATION_ASSIGNMENT ( #154, #187, ( #202 ) ) ;
#58 = ORIENTED_EDGE ( 'NONE', *, *, #30, .T. ) ;
#59 =( GEOMETRIC_REPRESENTATION_CONTEXT ( 3 ) GLOBAL_UNCERTAINTY_ASSIGNED_CONTEXT ( ( #155 ) ) GLOBAL_UNIT_ASSIGNED_CONTEXT ( ( #144, #23, #174 ) ) REPRESENTATION_CONTEXT ( 'NONE', 'WORKASPACE' ) );
#60 = DIRECTION ( 'NONE',  ( -4.320569453562378787E-31, -1.000000000000000000, -1.219242935835426903E-16 ) ) ;
#61 = CYLINDRICAL_SURFACE ( 'NONE', #186, 0.1749999999999999611 ) ;
#62 = DIRECTION ( 'NONE',  ( 0.0000000000000000000, 1.000000000000000000, 0.0000000000000000000 ) ) ;
#63 = AXIS2_PLACEMENT_3D ( 'NONE', #26, #234, #198 ) ;
#64 = DIRECTION ( 'NONE',  ( 3.491481338843133355E-15, -1.219242935835426903E-16, 1.000000000000000000 ) ) ;
#65 = DIRECTION ( 'NONE',  ( 0.0000000000000000000, 1.000000000000000000, 0.0000000000000000000 ) ) ;
#66 = ADVANCED_FACE ( 'NONE', ( #86 ), #82, .F. ) ;
#67 = CALENDAR_DATE ( 2021, 1, 11 ) ;
#68 = PERSON_AND_ORGANIZATION ( #98, #77 ) ;
#69 = PLANE ( 'NONE',  #49 ) ;
#70 = CLOSED_SHELL ( 'NONE', ( #92, #208, #66, #162, #185, #72 ) ) ;
#71 = COORDINATED_UNIVERSAL_TIME_OFFSET ( 1, 0, .AHEAD. ) ;
#72 = ADVANCED_FACE ( 'NONE', ( #27 ), #220, .F. ) ;
#73 = PERSON_AND_ORGANIZATION_ROLE ( 'creator' ) ;
#74 = VERTEX_POINT ( 'NONE', #16 ) ;
#75 = APPROVAL_DATE_TIME ( #153, #134 ) ;
#76 = ORIENTED_EDGE ( 'NONE', *, *, #51, .T. ) ;
#77 = ORGANIZATION ( 'UNSPECIFIED', 'UNSPECIFIED', '' ) ;
#78 = EDGE_CURVE ( 'NONE', #74, #74, #94, .T. ) ;
#79 = CC_DESIGN_APPROVAL ( #134, ( #91 ) ) ;
#80 = DIRECTION ( 'NONE',  ( -4.275831445896958607E-31, -1.000000000000000000, -1.224646799147353207E-16 ) ) ;
#81 = DIRECTION ( 'NONE',  ( 4.275831445896958607E-31, 1.000000000000000000, 1.224646799147353207E-16 ) ) ;
#82 = PLANE ( 'NONE',  #32 ) ;
#83 = DIRECTION ( 'NONE',  ( 4.275831445896958607E-31, 1.000000000000000000, 1.224646799147352961E-16 ) ) ;
#84 = MANIFOLD_SOLID_BREP ( 'Corps-Déplacer/Copier1[1]', #70 ) ;
#85 = AXIS2_PLACEMENT_3D ( 'NONE', #219, #102, #80 ) ;
#86 = FACE_OUTER_BOUND ( 'NONE', #191, .T. ) ;
#87 = APPLICATION_CONTEXT ( 'configuration controlled 3d designs of mechanical parts and assemblies' ) ;
#88 = APPROVAL_ROLE ( '' ) ;
#89 = AXIS2_PLACEMENT_3D ( 'NONE', #237, #184, #106 ) ;
#90 = SECURITY_CLASSIFICATION_LEVEL ( 'unclassified' ) ;
#91 = SECURITY_CLASSIFICATION ( '', '', #90 ) ;
#92 = ADVANCED_FACE ( 'NONE', ( #10, #12 ), #126, .T. ) ;
#93 = APPLICATION_PROTOCOL_DEFINITION ( 'international standard', 'config_control_design', 1994, #140 ) ;
#94 = CIRCLE ( 'NONE', #14, 0.1749999999999999056 ) ;
#95 = APPROVAL_DATE_TIME ( #168, #115 ) ;
#96 = EDGE_LOOP ( 'NONE', ( #76 ) ) ;
#97 = DESIGN_CONTEXT ( 'detailed design', #87, 'design' ) ;
#98 = PERSON ( 'UNSPECIFIED', 'UNSPECIFIED', 'UNSPECIFIED', ('UNSPECIFIED'), ('UNSPECIFIED'), ('UNSPECIFIED') ) ;
#99 = EDGE_LOOP ( 'NONE', ( #24 ) ) ;
#100 = LOCAL_TIME ( 11, 35, 31.00000000000000000, #71 ) ;
#101 = EDGE_LOOP ( 'NONE', ( #58 ) ) ;
#102 = DIRECTION ( 'NONE',  ( 3.491481338843133355E-15, -1.224646799147353207E-16, 1.000000000000000000 ) ) ;
#103 = LOCAL_TIME ( 11, 35, 31.00000000000000000, #112 ) ;
#104 = CARTESIAN_POINT ( 'NONE',  ( -2.426207676855160202E-30, 8.472439872342221210E-32, -6.948934968843509585E-16 ) ) ;
#105 = AXIS2_PLACEMENT_3D ( 'NONE', #43, #107, #62 ) ;
#106 = DIRECTION ( 'NONE',  ( 0.0000000000000000000, -1.000000000000000000, 0.0000000000000000000 ) ) ;
#107 = DIRECTION ( 'NONE',  ( -3.491481338843133355E-15, 1.224646799147353207E-16, -1.000000000000000000 ) ) ;
#108 = FACE_BOUND ( 'NONE', #39, .T. ) ;
#109 = AXIS2_PLACEMENT_3D ( 'NONE', #166, #64, #9 ) ;
#110 = PERSON_AND_ORGANIZATION_ROLE ( 'design_supplier' ) ;
#111 = PRODUCT_DEFINITION_FORMATION_WITH_SPECIFIED_SOURCE ( 'ANY', '', #202, .NOT_KNOWN. ) ;
#112 = COORDINATED_UNIVERSAL_TIME_OFFSET ( 1, 0, .AHEAD. ) ;
#113 = VERTEX_POINT ( 'NONE', #3 ) ;
#114 = APPROVAL_STATUS ( 'not_yet_approved' ) ;
#115 = APPROVAL ( #114, 'UNSPECIFIED' ) ;
#116 = ORIENTED_EDGE ( 'NONE', *, *, #241, .T. ) ;
#117 = DATE_AND_TIME ( #47, #100 ) ;
#118 = VERTEX_POINT ( 'NONE', #189 ) ;
#119 = EDGE_LOOP ( 'NONE', ( #53 ) ) ;
#120 = AXIS2_PLACEMENT_3D ( 'NONE', #232, #181, #60 ) ;
#121 = DIRECTION ( 'NONE',  ( 0.0000000000000000000, 1.000000000000000000, 0.0000000000000000000 ) ) ;
#122 = FACE_OUTER_BOUND ( 'NONE', #99, .T. ) ;
#123 = APPROVAL_PERSON_ORGANIZATION ( #35, #115, #88 ) ;
#124 = DIRECTION ( 'NONE',  ( 3.491481338843133355E-15, -1.219242935835426903E-16, 1.000000000000000000 ) ) ;
#125 = CARTESIAN_POINT ( 'NONE',  ( 0.0000000000000000000, 0.0000000000000000000, 0.0000000000000000000 ) ) ;
#126 = CYLINDRICAL_SURFACE ( 'NONE', #1, 1.499999999999994671 ) ;
#127 = CC_DESIGN_PERSON_AND_ORGANIZATION_ASSIGNMENT ( #34, #238, ( #158 ) ) ;
#128 = VERTEX_POINT ( 'NONE', #146 ) ;
#129 = CIRCLE ( 'NONE', #105, 1.499999999999996669 ) ;
#130 = PERSON_AND_ORGANIZATION ( #98, #77 ) ;
#131 = CARTESIAN_POINT ( 'NONE',  ( 2.167606693499002345E-14, -7.569392164054708495E-16, 6.208272315203656078 ) ) ;
#132 = APPROVAL_ROLE ( '' ) ;
#133 = CIRCLE ( 'NONE', #89, 0.1749999999999999056 ) ;
#134 = APPROVAL ( #15, 'UNSPECIFIED' ) ;
#135 = EDGE_LOOP ( 'NONE', ( #38 ) ) ;
#136 = CONICAL_SURFACE ( 'NONE', #206, 1.199999999999995959, 0.7853981633974468357 ) ;
#137 = FACE_BOUND ( 'NONE', #96, .T. ) ;
#138 = DIRECTION ( 'NONE',  ( 3.491481338843133355E-15, -1.219242935835426903E-16, 1.000000000000000000 ) ) ;
#139 = CARTESIAN_POINT ( 'NONE',  ( 3.491481338843131778E-15, -1.445602896647342861E-16, 0.9999999999999995559 ) ) ;
#140 = APPLICATION_CONTEXT ( 'configuration controlled 3d designs of mechanical parts and assemblies' ) ;
#141 = CLOSED_SHELL ( 'NONE', ( #239, #46, #179 ) ) ;
#142 = DIRECTION ( 'NONE',  ( -3.491481338843133355E-15, 1.224646799147353207E-16, -1.000000000000000000 ) ) ;
#143 = DIRECTION ( 'NONE',  ( -3.491481338843133355E-15, 1.224646799147353207E-16, -1.000000000000000000 ) ) ;
#144 =( LENGTH_UNIT ( ) NAMED_UNIT ( * ) SI_UNIT ( .MILLI., .METRE. ) );
#145 = CC_DESIGN_PERSON_AND_ORGANIZATION_ASSIGNMENT ( #205, #192, ( #91 ) ) ;
#146 = CARTESIAN_POINT ( 'NONE',  ( 2.167606693499002345E-14, -1.499999999999995337, 6.208272315203656078 ) ) ;
#147 = CIRCLE ( 'NONE', #170, 1.199999999999995959 ) ;
#148 = PERSON_AND_ORGANIZATION ( #98, #77 ) ;
#149 = COORDINATED_UNIVERSAL_TIME_OFFSET ( 1, 0, .AHEAD. ) ;
#150 = EDGE_LOOP ( 'NONE', ( #8 ) ) ;
#151 = DATE_TIME_ROLE ( 'creation_date' ) ;
#152 = CC_DESIGN_PERSON_AND_ORGANIZATION_ASSIGNMENT ( #130, #73, ( #111 ) ) ;
#153 = DATE_AND_TIME ( #4, #211 ) ;
#154 = PERSON_AND_ORGANIZATION ( #98, #77 ) ;
#155 = UNCERTAINTY_MEASURE_WITH_UNIT (LENGTH_MEASURE( 1.000000000000000082E-05 ), #144, 'distance_accuracy_value', 'NONE');
#156 = EDGE_LOOP ( 'NONE', ( #212 ) ) ;
#157 = CC_DESIGN_APPROVAL ( #37, ( #111 ) ) ;
#158 = PRODUCT_DEFINITION ( 'UNKNOWN', '', #111, #97 ) ;
#159 = FACE_OUTER_BOUND ( 'NONE', #119, .T. ) ;
#160 = LOCAL_TIME ( 11, 35, 31.00000000000000000, #149 ) ;
#161 = CARTESIAN_POINT ( 'NONE',  ( 0.0000000000000000000, 0.0000000000000000000, 0.0000000000000000000 ) ) ;
#162 = ADVANCED_FACE ( 'NONE', ( #108, #45 ), #55, .T. ) ;
#163 = FACE_OUTER_BOUND ( 'NONE', #156, .T. ) ;
#164 = CC_DESIGN_DATE_AND_TIME_ASSIGNMENT ( #22, #18, ( #91 ) ) ;
#165 = APPROVAL_PERSON_ORGANIZATION ( #68, #134, #227 ) ;
#166 = CARTESIAN_POINT ( 'NONE',  ( 3.470645268523156071E-14, -1.211966874736208680E-15, 9.940323122772635855 ) ) ;
#167 = CIRCLE ( 'NONE', #31, 0.1750000000000000167 ) ;
#168 = DATE_AND_TIME ( #67, #218 ) ;
#169 = ADVANCED_BREP_SHAPE_REPRESENTATION ( '956955', ( #84, #5, #199 ), #59 ) ;
#170 = AXIS2_PLACEMENT_3D ( 'NONE', #201, #142, #65 ) ;
#171 = VERTEX_POINT ( 'NONE', #190 ) ;
#172 = APPLICATION_PROTOCOL_DEFINITION ( 'international standard', 'config_control_design', 1994, #87 ) ;
#173 = CIRCLE ( 'NONE', #20, 1.499999999999994671 ) ;
#174 =( NAMED_UNIT ( * ) SI_UNIT ( $, .STERADIAN. ) SOLID_ANGLE_UNIT ( ) );
#175 = ORIENTED_EDGE ( 'NONE', *, *, #231, .T. ) ;
#176 = COORDINATED_UNIVERSAL_TIME_OFFSET ( 1, 0, .AHEAD. ) ;
#177 = CC_DESIGN_SECURITY_CLASSIFICATION ( #91, ( #111 ) ) ;
#178 = APPROVAL_PERSON_ORGANIZATION ( #226, #37, #132 ) ;
#179 = ADVANCED_FACE ( 'NONE', ( #200 ), #235, .F. ) ;
#180 = DIRECTION ( 'NONE',  ( 3.491481338843133355E-15, -1.224646799147353207E-16, 1.000000000000000000 ) ) ;
#181 = DIRECTION ( 'NONE',  ( 3.491481338843133355E-15, -1.219242935835426903E-16, 1.000000000000000000 ) ) ;
#182 = FACE_OUTER_BOUND ( 'NONE', #135, .T. ) ;
#183 = DIRECTION ( 'NONE',  ( 0.0000000000000000000, -1.000000000000000000, 0.0000000000000000000 ) ) ;
#184 = DIRECTION ( 'NONE',  ( 3.491481338843133355E-15, -1.219242935835426903E-16, 1.000000000000000000 ) ) ;
#185 = ADVANCED_FACE ( 'NONE', ( #163, #13 ), #42, .F. ) ;
#186 = AXIS2_PLACEMENT_3D ( 'NONE', #125, #124, #196 ) ;
#187 = PERSON_AND_ORGANIZATION_ROLE ( 'design_owner' ) ;
#188 = DIRECTION ( 'NONE',  ( -3.491481338843133355E-15, 1.219242935835426903E-16, -1.000000000000000000 ) ) ;
#189 = CARTESIAN_POINT ( 'NONE',  ( 1.326762908760390423E-13, 1.199999999999991518, 38.00000000000000000 ) ) ;
#190 = CARTESIAN_POINT ( 'NONE',  ( 1.316288464743861212E-13, 1.499999999999992228, 37.69999999999999574 ) ) ;
#191 = EDGE_LOOP ( 'NONE', ( #229 ) ) ;
#192 = PERSON_AND_ORGANIZATION_ROLE ( 'classification_officer' ) ;
#193 = CARTESIAN_POINT ( 'NONE',  ( 3.491481338843129805E-15, -0.1750000000000000167, 0.9999999999999988898 ) ) ;
#194 = ORIENTED_EDGE ( 'NONE', *, *, #213, .F. ) ;
#195 = EDGE_LOOP ( 'NONE', ( #194 ) ) ;
#196 = DIRECTION ( 'NONE',  ( -4.256963957985709765E-31, -1.000000000000000000, -1.219242935835426903E-16 ) ) ;
#197 = CC_DESIGN_PERSON_AND_ORGANIZATION_ASSIGNMENT ( #148, #110, ( #111 ) ) ;
#198 = DIRECTION ( 'NONE',  ( 0.0000000000000000000, -1.000000000000000000, 0.0000000000000000000 ) ) ;
#199 = AXIS2_PLACEMENT_3D ( 'NONE', #203, #56, #207 ) ;
#200 = FACE_OUTER_BOUND ( 'NONE', #29, .T. ) ;
#201 = CARTESIAN_POINT ( 'NONE',  ( 1.326762908760390423E-13, -4.653657836759941941E-15, 38.00000000000000000 ) ) ;
#202 = PRODUCT ( '956955', '956955', '', ( #210 ) ) ;
#203 = CARTESIAN_POINT ( 'NONE',  ( 0.0000000000000000000, 0.0000000000000000000, 0.0000000000000000000 ) ) ;
#204 = PRODUCT_DEFINITION_SHAPE ( 'NONE', 'NONE',  #158 ) ;
#205 = PERSON_AND_ORGANIZATION ( #98, #77 ) ;
#206 = AXIS2_PLACEMENT_3D ( 'NONE', #215, #40, #121 ) ;
#207 = DIRECTION ( 'NONE',  ( 1.000000000000000000, 0.0000000000000000000, 0.0000000000000000000 ) ) ;
#208 = ADVANCED_FACE ( 'NONE', ( #159, #137 ), #136, .T. ) ;
#209 = CALENDAR_DATE ( 2021, 1, 11 ) ;
#210 = MECHANICAL_CONTEXT ( 'NONE', #140, 'mechanical' ) ;
#211 = LOCAL_TIME ( 11, 35, 31.00000000000000000, #176 ) ;
#212 = ORIENTED_EDGE ( 'NONE', *, *, #44, .T. ) ;
#213 = EDGE_CURVE ( 'NONE', #17, #17, #7, .T. ) ;
#214 = AXIS2_PLACEMENT_3D ( 'NONE', #139, #180, #236 ) ;
#215 = CARTESIAN_POINT ( 'NONE',  ( 1.326762908760390423E-13, -4.653657836759941941E-15, 38.00000000000000000 ) ) ;
#216 = DIRECTION ( 'NONE',  ( 3.491481338843133355E-15, -1.219242935835426903E-16, 1.000000000000000000 ) ) ;
#217 = CARTESIAN_POINT ( 'NONE',  ( 3.491481338843129805E-15, -1.219242935835425670E-16, 0.9999999999999988898 ) ) ;
#218 = LOCAL_TIME ( 11, 35, 31.00000000000000000, #19 ) ;
#219 = CARTESIAN_POINT ( 'NONE',  ( -8.551680453529350800E-31, 2.999525725151307090E-32, -2.449298628175645296E-16 ) ) ;
#220 = PLANE ( 'NONE',  #214 ) ;
#221 = DIRECTION ( 'NONE',  ( 3.491481338843133355E-15, -1.224646799147353207E-16, 1.000000000000000000 ) ) ;
#222 = PRODUCT_RELATED_PRODUCT_CATEGORY ( 'detail', '', ( #202 ) ) ;
#223 = CARTESIAN_POINT ( 'NONE',  ( 5.298805071068387370E-15, -0.2431483474218602003, 1.517638090205027934 ) ) ;
#224 = CALENDAR_DATE ( 2021, 1, 11 ) ;
#225 = EDGE_LOOP ( 'NONE', ( #175 ) ) ;
#226 = PERSON_AND_ORGANIZATION ( #98, #77 ) ;
#227 = APPROVAL_ROLE ( '' ) ;
#228 = DIRECTION ( 'NONE',  ( 0.0000000000000000000, -1.000000000000000000, 0.0000000000000000000 ) ) ;
#229 = ORIENTED_EDGE ( 'NONE', *, *, #51, .F. ) ;
#230 = ORIENTED_EDGE ( 'NONE', *, *, #44, .F. ) ;
#231 = EDGE_CURVE ( 'NONE', #113, #113, #167, .T. ) ;
#232 = CARTESIAN_POINT ( 'NONE',  ( 3.491481338843129805E-15, 0.0000000000000000000, 0.9999999999999988898 ) ) ;
#233 = CC_DESIGN_APPROVAL ( #115, ( #158 ) ) ;
#234 = DIRECTION ( 'NONE',  ( 3.491481338843133355E-15, -1.219242935835426903E-16, 1.000000000000000000 ) ) ;
#235 = PLANE ( 'NONE',  #85 ) ;
#236 = DIRECTION ( 'NONE',  ( -4.275831445896958607E-31, -1.000000000000000000, -1.224646799147353207E-16 ) ) ;
#237 = CARTESIAN_POINT ( 'NONE',  ( 3.491481338843129805E-15, -1.219242935835425670E-16, 0.9999999999999988898 ) ) ;
#238 = PERSON_AND_ORGANIZATION_ROLE ( 'creator' ) ;
#239 = ADVANCED_FACE ( 'NONE', ( #122 ), #69, .T. ) ;
#240 = CC_DESIGN_DATE_AND_TIME_ASSIGNMENT ( #50, #151, ( #158 ) ) ;
#241 = EDGE_CURVE ( 'NONE', #128, #128, #173, .T. ) ;
#242 = DIRECTION ( 'NONE',  ( -4.275831445896958607E-31, -1.000000000000000000, -1.224646799147353207E-16 ) ) ;
#243 = CARTESIAN_POINT ( 'NONE',  ( 3.491481338843131778E-15, -1.445602896647342861E-16, 0.9999999999999995559 ) ) ;
ENDSEC;
END-ISO-10303-21;
