ISO-10303-21;
HEADER;
FILE_DESCRIPTION (( 'STEP AP203' ),
    '1' );
FILE_NAME ('956870.step',
    '2023-02-16T09:47:38',
    ( '' ),
    ( '' ),
    'SwSTEP 2.0',
    'SolidWorks 2019',
    '' );
FILE_SCHEMA (( 'CONFIG_CONTROL_DESIGN' ));
ENDSEC;

DATA;
#1 = DIRECTION ( 'NONE',  ( -3.491481338843133355E-15, 1.224646799147353207E-16, -1.000000000000000000 ) ) ;
#2 = CARTESIAN_POINT ( 'NONE',  ( 3.021506987599120233E-32, -1.059801987138981172E-33, 8.653939959479391117E-18 ) ) ;
#3 = EDGE_LOOP ( 'NONE', ( #174 ) ) ;
#4 =( GEOMETRIC_REPRESENTATION_CONTEXT ( 3 ) GLOBAL_UNCERTAINTY_ASSIGNED_CONTEXT ( ( #52 ) ) GLOBAL_UNIT_ASSIGNED_CONTEXT ( ( #101, #216, #32 ) ) REPRESENTATION_CONTEXT ( 'NONE', 'WORKASPACE' ) );
#5 = EDGE_LOOP ( 'NONE', ( #23 ) ) ;
#6 = DIRECTION ( 'NONE',  ( -3.491481338843133355E-15, 1.224646799147353207E-16, -1.000000000000000000 ) ) ;
#7 = LOCAL_TIME ( 10, 47, 38.00000000000000000, #220 ) ;
#8 = DIRECTION ( 'NONE',  ( -3.491481338843133355E-15, 1.224646799147353207E-16, -1.000000000000000000 ) ) ;
#9 = PERSON ( 'UNSPECIFIED', 'UNSPECIFIED', 'UNSPECIFIED', ('UNSPECIFIED'), ('UNSPECIFIED'), ('UNSPECIFIED') ) ;
#10 = ADVANCED_FACE ( 'NONE', ( #78 ), #79, .F. ) ;
#11 = DIRECTION ( 'NONE',  ( -3.491481338843133355E-15, 1.224646799147353207E-16, -1.000000000000000000 ) ) ;
#12 = AXIS2_PLACEMENT_3D ( 'NONE', #56, #207, #59 ) ;
#13 = CARTESIAN_POINT ( 'NONE',  ( 1.326762908760390423E-13, 1.199999999999995515, 38.00000000000000000 ) ) ;
#14 = EDGE_CURVE ( 'NONE', #192, #192, #57, .T. ) ;
#15 = APPROVAL_STATUS ( 'not_yet_approved' ) ;
#16 = AXIS2_PLACEMENT_3D ( 'NONE', #196, #215, #123 ) ;
#17 = SECURITY_CLASSIFICATION_LEVEL ( 'unclassified' ) ;
#18 = COORDINATED_UNIVERSAL_TIME_OFFSET ( 1, 0, .AHEAD. ) ;
#19 = APPROVAL_STATUS ( 'not_yet_approved' ) ;
#20 = FACE_OUTER_BOUND ( 'NONE', #187, .T. ) ;
#21 = PRODUCT_RELATED_PRODUCT_CATEGORY ( 'detail', '', ( #204 ) ) ;
#22 = CYLINDRICAL_SURFACE ( 'NONE', #198, 1.499999999999997780 ) ;
#23 = ORIENTED_EDGE ( 'NONE', *, *, #14, .F. ) ;
#24 = EDGE_CURVE ( 'NONE', #160, #160, #86, .T. ) ;
#25 = EDGE_LOOP ( 'NONE', ( #95 ) ) ;
#26 = MANIFOLD_SOLID_BREP ( 'Corps-Déplacer/Copier1[1]', #98 ) ;
#27 = EDGE_LOOP ( 'NONE', ( #113 ) ) ;
#28 = CONICAL_SURFACE ( 'NONE', #120, 1.499999999999996003, 0.5235987755982928205 ) ;
#29 = VERTEX_POINT ( 'NONE', #236 ) ;
#30 = FACE_OUTER_BOUND ( 'NONE', #5, .T. ) ;
#31 = DIRECTION ( 'NONE',  ( -3.491481338843133355E-15, 1.224646799147353207E-16, -1.000000000000000000 ) ) ;
#32 =( NAMED_UNIT ( * ) SI_UNIT ( $, .STERADIAN. ) SOLID_ANGLE_UNIT ( ) );
#33 = APPROVAL_ROLE ( '' ) ;
#34 = DATE_AND_TIME ( #70, #7 ) ;
#35 = COORDINATED_UNIVERSAL_TIME_OFFSET ( 1, 0, .AHEAD. ) ;
#36 = PERSON_AND_ORGANIZATION_ROLE ( 'creator' ) ;
#37 = ORIENTED_EDGE ( 'NONE', *, *, #147, .T. ) ;
#38 = CLOSED_SHELL ( 'NONE', ( #173, #112, #188, #232 ) ) ;
#39 = AXIS2_PLACEMENT_3D ( 'NONE', #40, #135, #41 ) ;
#40 = CARTESIAN_POINT ( 'NONE',  ( 5.237222008264701611E-15, -1.836970198721030427E-16, 1.500000000000000444 ) ) ;
#41 = DIRECTION ( 'NONE',  ( 0.000000000000000000, 1.000000000000000000, 0.000000000000000000 ) ) ;
#42 = ORIENTED_EDGE ( 'NONE', *, *, #203, .F. ) ;
#43 = ORGANIZATION ( 'UNSPECIFIED', 'UNSPECIFIED', '' ) ;
#44 = CARTESIAN_POINT ( 'NONE',  ( 1.256933281983541142E-15, -4.408728476930517867E-17, 0.3600000000000037614 ) ) ;
#45 = DIRECTION ( 'NONE',  ( 4.275831445896958607E-31, 1.000000000000000000, 1.224646799147353207E-16 ) ) ;
#46 = DIRECTION ( 'NONE',  ( 0.000000000000000000, -1.000000000000000000, 0.000000000000000000 ) ) ;
#47 = CARTESIAN_POINT ( 'NONE',  ( 1.510753493799560117E-32, -5.299009935694905861E-34, 4.326969979739695559E-18 ) ) ;
#48 = VERTEX_POINT ( 'NONE', #178 ) ;
#49 = CALENDAR_DATE ( 2023, 16, 2 ) ;
#50 = CALENDAR_DATE ( 2023, 16, 2 ) ;
#51 = CC_DESIGN_PERSON_AND_ORGANIZATION_ASSIGNMENT ( #166, #218, ( #55 ) ) ;
#52 = UNCERTAINTY_MEASURE_WITH_UNIT (LENGTH_MEASURE( 1.000000000000000082E-05 ), #101, 'distance_accuracy_value', 'NONE');
#53 = AXIS2_PLACEMENT_3D ( 'NONE', #47, #194, #212 ) ;
#54 = PLANE ( 'NONE',  #12 ) ;
#55 = PRODUCT_DEFINITION_FORMATION_WITH_SPECIFIED_SOURCE ( 'ANY', '', #204, .NOT_KNOWN. ) ;
#56 = CARTESIAN_POINT ( 'NONE',  ( 1.326762908760390423E-13, 8.998558695971078593E-33, 38.00000000000000000 ) ) ;
#57 = CIRCLE ( 'NONE', #193, 1.500000000000000000 ) ;
#58 = EDGE_CURVE ( 'NONE', #48, #48, #125, .T. ) ;
#59 = DIRECTION ( 'NONE',  ( 4.275831445896958607E-31, 1.000000000000000000, 1.224646799147353207E-16 ) ) ;
#60 = ORIENTED_EDGE ( 'NONE', *, *, #203, .T. ) ;
#61 = CARTESIAN_POINT ( 'NONE',  ( 5.237222008264700822E-15, -2.355577483793587935E-32, 1.500000000000000222 ) ) ;
#62 = CC_DESIGN_PERSON_AND_ORGANIZATION_ASSIGNMENT ( #223, #36, ( #152 ) ) ;
#63 = DIRECTION ( 'NONE',  ( 0.000000000000000000, 1.000000000000000000, 0.000000000000000000 ) ) ;
#64 = CIRCLE ( 'NONE', #39, 0.4000000000000000222 ) ;
#65 = DIRECTION ( 'NONE',  ( 3.491481338843133355E-15, -1.224646799147353207E-16, 1.000000000000000000 ) ) ;
#66 = PLANE ( 'NONE',  #16 ) ;
#67 = CYLINDRICAL_SURFACE ( 'NONE', #224, 0.3999999999999999667 ) ;
#68 = CARTESIAN_POINT ( 'NONE',  ( 1.188938738807517642E-14, -4.170235723915849897E-16, 3.405255888325785296 ) ) ;
#69 = ADVANCED_FACE ( 'NONE', ( #226, #20 ), #22, .T. ) ;
#70 = CALENDAR_DATE ( 2023, 16, 2 ) ;
#71 = PERSON_AND_ORGANIZATION_ROLE ( 'classification_officer' ) ;
#72 = CC_DESIGN_DATE_AND_TIME_ASSIGNMENT ( #168, #148, ( #90 ) ) ;
#73 = CARTESIAN_POINT ( 'NONE',  ( 0.000000000000000000, 0.000000000000000000, 0.000000000000000000 ) ) ;
#74 = ADVANCED_FACE ( 'NONE', ( #171 ), #54, .F. ) ;
#75 = ORIENTED_EDGE ( 'NONE', *, *, #58, .F. ) ;
#76 = CIRCLE ( 'NONE', #240, 1.200000000000000178 ) ;
#77 = EDGE_LOOP ( 'NONE', ( #37 ) ) ;
#78 = FACE_OUTER_BOUND ( 'NONE', #27, .T. ) ;
#79 = PLANE ( 'NONE',  #167 ) ;
#80 = EDGE_LOOP ( 'NONE', ( #42 ) ) ;
#81 = FACE_OUTER_BOUND ( 'NONE', #205, .T. ) ;
#82 = FACE_OUTER_BOUND ( 'NONE', #80, .T. ) ;
#83 = VERTEX_POINT ( 'NONE', #162 ) ;
#84 = AXIS2_PLACEMENT_3D ( 'NONE', #238, #124, #126 ) ;
#85 = PERSON_AND_ORGANIZATION ( #9, #43 ) ;
#86 = CIRCLE ( 'NONE', #228, 0.3999999999999999112 ) ;
#87 = PERSON_AND_ORGANIZATION ( #9, #43 ) ;
#88 = DIRECTION ( 'NONE',  ( 1.000000000000000000, 0.000000000000000000, 0.000000000000000000 ) ) ;
#89 = DIRECTION ( 'NONE',  ( 4.275831445896959482E-31, 1.000000000000000000, 1.224646799147353207E-16 ) ) ;
#90 = SECURITY_CLASSIFICATION ( '', '', #17 ) ;
#91 = ADVANCED_BREP_SHAPE_REPRESENTATION ( '956870', ( #26, #108, #165 ), #4 ) ;
#92 = EDGE_LOOP ( 'NONE', ( #189 ) ) ;
#93 = EDGE_LOOP ( 'NONE', ( #157 ) ) ;
#94 = CARTESIAN_POINT ( 'NONE',  ( 1.316288464743861212E-13, -4.616918432785521081E-15, 37.69999999999999574 ) ) ;
#95 = ORIENTED_EDGE ( 'NONE', *, *, #24, .F. ) ;
#96 = DIRECTION ( 'NONE',  ( 3.491481338843133355E-15, -1.224646799147353207E-16, 1.000000000000000000 ) ) ;
#97 = CARTESIAN_POINT ( 'NONE',  ( 1.256933281983541340E-15, 0.3999999999999998557, 0.3600000000000038169 ) ) ;
#98 = CLOSED_SHELL ( 'NONE', ( #10, #118, #69, #237, #74 ) ) ;
#99 = EDGE_CURVE ( 'NONE', #159, #159, #64, .T. ) ;
#100 = DIRECTION ( 'NONE',  ( 0.000000000000000000, 1.000000000000000000, 0.000000000000000000 ) ) ;
#101 =( LENGTH_UNIT ( ) NAMED_UNIT ( * ) SI_UNIT ( .MILLI., .METRE. ) );
#102 = PLANE ( 'NONE',  #53 ) ;
#103 = APPROVAL_PERSON_ORGANIZATION ( #184, #209, #170 ) ;
#104 = APPROVAL ( #15, 'UNSPECIFIED' ) ;
#105 = APPLICATION_CONTEXT ( 'configuration controlled 3d designs of mechanical parts and assemblies' ) ;
#106 = COORDINATED_UNIVERSAL_TIME_OFFSET ( 1, 0, .AHEAD. ) ;
#107 = DESIGN_CONTEXT ( 'detailed design', #105, 'design' ) ;
#108 = MANIFOLD_SOLID_BREP ( 'Corps-Déplacer/Copier1[2]', #38 ) ;
#109 = PERSON_AND_ORGANIZATION ( #9, #43 ) ;
#110 = DATE_AND_TIME ( #49, #169 ) ;
#111 = DATE_AND_TIME ( #50, #191 ) ;
#112 = ADVANCED_FACE ( 'NONE', ( #119, #190 ), #179, .T. ) ;
#113 = ORIENTED_EDGE ( 'NONE', *, *, #99, .T. ) ;
#114 = CC_DESIGN_DATE_AND_TIME_ASSIGNMENT ( #144, #183, ( #152 ) ) ;
#115 = EDGE_LOOP ( 'NONE', ( #117 ) ) ;
#116 = APPLICATION_CONTEXT ( 'configuration controlled 3d designs of mechanical parts and assemblies' ) ;
#117 = ORIENTED_EDGE ( 'NONE', *, *, #130, .T. ) ;
#118 = ADVANCED_FACE ( 'NONE', ( #239, #139 ), #28, .T. ) ;
#119 = FACE_BOUND ( 'NONE', #158, .T. ) ;
#120 = AXIS2_PLACEMENT_3D ( 'NONE', #177, #96, #46 ) ;
#121 = CARTESIAN_POINT ( 'NONE',  ( 1.256933281983541142E-15, -4.408728476930517867E-17, 0.3600000000000037614 ) ) ;
#122 = AXIS2_PLACEMENT_3D ( 'NONE', #68, #8, #63 ) ;
#123 = DIRECTION ( 'NONE',  ( -4.275831445896958607E-31, -1.000000000000000000, -1.224646799147353207E-16 ) ) ;
#124 = DIRECTION ( 'NONE',  ( -3.491481338843133355E-15, 1.224646799147353207E-16, -1.000000000000000000 ) ) ;
#125 = CIRCLE ( 'NONE', #234, 0.04000000000000000083 ) ;
#126 = DIRECTION ( 'NONE',  ( 0.000000000000000000, 1.000000000000000000, 0.000000000000000000 ) ) ;
#127 = PERSON_AND_ORGANIZATION ( #9, #43 ) ;
#128 = CC_DESIGN_PERSON_AND_ORGANIZATION_ASSIGNMENT ( #87, #145, ( #204 ) ) ;
#129 = PERSON_AND_ORGANIZATION_ROLE ( 'design_supplier' ) ;
#130 = EDGE_CURVE ( 'NONE', #29, #29, #151, .T. ) ;
#131 = APPROVAL_STATUS ( 'not_yet_approved' ) ;
#132 = APPROVAL_DATE_TIME ( #110, #142 ) ;
#133 = ORIENTED_EDGE ( 'NONE', *, *, #24, .T. ) ;
#134 = CC_DESIGN_PERSON_AND_ORGANIZATION_ASSIGNMENT ( #109, #129, ( #55 ) ) ;
#135 = DIRECTION ( 'NONE',  ( -3.491481338843133355E-15, 1.224646799147353207E-16, -1.000000000000000000 ) ) ;
#136 = CARTESIAN_POINT ( 'NONE',  ( 0.000000000000000000, 0.000000000000000000, 0.000000000000000000 ) ) ;
#137 = FACE_OUTER_BOUND ( 'NONE', #25, .T. ) ;
#138 = CARTESIAN_POINT ( 'NONE',  ( 1.326762908760390423E-13, -4.653657836759941941E-15, 38.00000000000000000 ) ) ;
#139 = FACE_OUTER_BOUND ( 'NONE', #115, .T. ) ;
#140 = CARTESIAN_POINT ( 'NONE',  ( 1.316288464743861212E-13, 1.499999999999995559, 37.69999999999999574 ) ) ;
#141 = CIRCLE ( 'NONE', #84, 0.4000000000000000222 ) ;
#142 = APPROVAL ( #131, 'UNSPECIFIED' ) ;
#143 = DIRECTION ( 'NONE',  ( 0.000000000000000000, 1.000000000000000000, 0.000000000000000000 ) ) ;
#144 = DATE_AND_TIME ( #202, #208 ) ;
#145 = PERSON_AND_ORGANIZATION_ROLE ( 'design_owner' ) ;
#146 = CC_DESIGN_APPROVAL ( #209, ( #90 ) ) ;
#147 = EDGE_CURVE ( 'NONE', #235, #235, #76, .T. ) ;
#148 = DATE_TIME_ROLE ( 'classification_date' ) ;
#149 = MECHANICAL_CONTEXT ( 'NONE', #116, 'mechanical' ) ;
#150 = APPLICATION_PROTOCOL_DEFINITION ( 'international standard', 'config_control_design', 1994, #116 ) ;
#151 = CIRCLE ( 'NONE', #122, 1.499999999999996003 ) ;
#152 = PRODUCT_DEFINITION ( 'UNKNOWN', '', #55, #107 ) ;
#153 = DIRECTION ( 'NONE',  ( 4.814824860968090508E-31, 1.000000000000000000, 1.355252715606880789E-16 ) ) ;
#154 = EDGE_LOOP ( 'NONE', ( #60 ) ) ;
#155 = AXIS2_PLACEMENT_3D ( 'NONE', #217, #31, #100 ) ;
#156 = DIRECTION ( 'NONE',  ( 0.000000000000000000, 1.000000000000000000, 0.000000000000000000 ) ) ;
#157 = ORIENTED_EDGE ( 'NONE', *, *, #99, .F. ) ;
#158 = EDGE_LOOP ( 'NONE', ( #75 ) ) ;
#159 = VERTEX_POINT ( 'NONE', #195 ) ;
#160 = VERTEX_POINT ( 'NONE', #97 ) ;
#161 = APPROVAL_PERSON_ORGANIZATION ( #127, #142, #199 ) ;
#162 = CARTESIAN_POINT ( 'NONE',  ( 5.237222008264701611E-15, 0.3999999999999998557, 1.500000000000000444 ) ) ;
#163 = CONICAL_SURFACE ( 'NONE', #155, 1.200000000000000178, 0.7853981633974453924 ) ;
#164 = DIRECTION ( 'NONE',  ( -4.814824860968090508E-31, -1.000000000000000000, -1.355252715606880789E-16 ) ) ;
#165 = AXIS2_PLACEMENT_3D ( 'NONE', #73, #200, #88 ) ;
#166 = PERSON_AND_ORGANIZATION ( #9, #43 ) ;
#167 = AXIS2_PLACEMENT_3D ( 'NONE', #61, #172, #176 ) ;
#168 = DATE_AND_TIME ( #219, #222 ) ;
#169 = LOCAL_TIME ( 10, 47, 38.00000000000000000, #18 ) ;
#170 = APPROVAL_ROLE ( '' ) ;
#171 = FACE_OUTER_BOUND ( 'NONE', #3, .T. ) ;
#172 = DIRECTION ( 'NONE',  ( 3.491481338843133355E-15, -1.224646799147353207E-16, 1.000000000000000000 ) ) ;
#173 = ADVANCED_FACE ( 'NONE', ( #81 ), #102, .F. ) ;
#174 = ORIENTED_EDGE ( 'NONE', *, *, #147, .F. ) ;
#175 = ORIENTED_EDGE ( 'NONE', *, *, #58, .T. ) ;
#176 = DIRECTION ( 'NONE',  ( -4.275831445896958607E-31, -1.000000000000000000, -1.224646799147353207E-16 ) ) ;
#177 = CARTESIAN_POINT ( 'NONE',  ( 1.188938738807517642E-14, -4.170235723915849897E-16, 3.405255888325785296 ) ) ;
#178 = CARTESIAN_POINT ( 'NONE',  ( 4.731839565957903391E-32, 0.04000000000000000083, 1.355252715606880543E-17 ) ) ;
#179 = CONICAL_SURFACE ( 'NONE', #243, 0.3999999999999999112, 0.7853981633974428389 ) ;
#180 = FACE_BOUND ( 'NONE', #77, .T. ) ;
#181 = CARTESIAN_POINT ( 'NONE',  ( 0.000000000000000000, 0.000000000000000000, 0.000000000000000000 ) ) ;
#182 = DIRECTION ( 'NONE',  ( -3.491481338843133355E-15, 1.224646799147353207E-16, -1.000000000000000000 ) ) ;
#183 = DATE_TIME_ROLE ( 'creation_date' ) ;
#184 = PERSON_AND_ORGANIZATION ( #9, #43 ) ;
#185 = APPROVAL_DATE_TIME ( #111, #209 ) ;
#186 = SHAPE_DEFINITION_REPRESENTATION ( #229, #91 ) ;
#187 = EDGE_LOOP ( 'NONE', ( #233 ) ) ;
#188 = ADVANCED_FACE ( 'NONE', ( #137, #214 ), #67, .T. ) ;
#189 = ORIENTED_EDGE ( 'NONE', *, *, #130, .F. ) ;
#190 = FACE_OUTER_BOUND ( 'NONE', #210, .T. ) ;
#191 = LOCAL_TIME ( 10, 47, 38.00000000000000000, #221 ) ;
#192 = VERTEX_POINT ( 'NONE', #140 ) ;
#193 = AXIS2_PLACEMENT_3D ( 'NONE', #94, #6, #156 ) ;
#194 = DIRECTION ( 'NONE',  ( 3.491481338843133355E-15, -1.224646799147353207E-16, 1.000000000000000000 ) ) ;
#195 = CARTESIAN_POINT ( 'NONE',  ( 5.237222008264701611E-15, 0.3999999999999998557, 1.500000000000000444 ) ) ;
#196 = CARTESIAN_POINT ( 'NONE',  ( 5.237222008264700822E-15, -2.355577483793587935E-32, 1.500000000000000222 ) ) ;
#197 = APPROVAL_DATE_TIME ( #34, #104 ) ;
#198 = AXIS2_PLACEMENT_3D ( 'NONE', #136, #225, #89 ) ;
#199 = APPROVAL_ROLE ( '' ) ;
#200 = DIRECTION ( 'NONE',  ( 0.000000000000000000, 0.000000000000000000, 1.000000000000000000 ) ) ;
#201 = CC_DESIGN_SECURITY_CLASSIFICATION ( #90, ( #55 ) ) ;
#202 = CALENDAR_DATE ( 2023, 16, 2 ) ;
#203 = EDGE_CURVE ( 'NONE', #83, #83, #141, .T. ) ;
#204 = PRODUCT ( '956870', '956870', '', ( #149 ) ) ;
#205 = EDGE_LOOP ( 'NONE', ( #175 ) ) ;
#206 = APPROVAL_PERSON_ORGANIZATION ( #85, #104, #33 ) ;
#207 = DIRECTION ( 'NONE',  ( -3.491481338843133355E-15, 1.224646799147353207E-16, -1.000000000000000000 ) ) ;
#208 = LOCAL_TIME ( 10, 47, 38.00000000000000000, #106 ) ;
#209 = APPROVAL ( #19, 'UNSPECIFIED' ) ;
#210 = EDGE_LOOP ( 'NONE', ( #133 ) ) ;
#211 = CC_DESIGN_APPROVAL ( #142, ( #55 ) ) ;
#212 = DIRECTION ( 'NONE',  ( -4.275831445896958607E-31, -1.000000000000000000, -1.224646799147353207E-16 ) ) ;
#213 = CC_DESIGN_APPROVAL ( #104, ( #152 ) ) ;
#214 = FACE_OUTER_BOUND ( 'NONE', #154, .T. ) ;
#215 = DIRECTION ( 'NONE',  ( 3.491481338843133355E-15, -1.224646799147353207E-16, 1.000000000000000000 ) ) ;
#216 =( NAMED_UNIT ( * ) PLANE_ANGLE_UNIT ( ) SI_UNIT ( $, .RADIAN. ) );
#217 = CARTESIAN_POINT ( 'NONE',  ( 1.326762908760390423E-13, -4.653657836759941941E-15, 38.00000000000000000 ) ) ;
#218 = PERSON_AND_ORGANIZATION_ROLE ( 'creator' ) ;
#219 = CALENDAR_DATE ( 2023, 16, 2 ) ;
#220 = COORDINATED_UNIVERSAL_TIME_OFFSET ( 1, 0, .AHEAD. ) ;
#221 = COORDINATED_UNIVERSAL_TIME_OFFSET ( 1, 0, .AHEAD. ) ;
#222 = LOCAL_TIME ( 10, 47, 38.00000000000000000, #35 ) ;
#223 = PERSON_AND_ORGANIZATION ( #9, #43 ) ;
#224 = AXIS2_PLACEMENT_3D ( 'NONE', #181, #182, #45 ) ;
#225 = DIRECTION ( 'NONE',  ( -3.491481338843133355E-15, 1.224646799147353207E-16, -1.000000000000000000 ) ) ;
#226 = FACE_OUTER_BOUND ( 'NONE', #92, .T. ) ;
#227 = CC_DESIGN_PERSON_AND_ORGANIZATION_ASSIGNMENT ( #242, #71, ( #90 ) ) ;
#228 = AXIS2_PLACEMENT_3D ( 'NONE', #121, #1, #153 ) ;
#229 = PRODUCT_DEFINITION_SHAPE ( 'NONE', 'NONE',  #152 ) ;
#230 = DIRECTION ( 'NONE',  ( -3.491481338843133355E-15, 1.224646799147353207E-16, -1.000000000000000000 ) ) ;
#231 = DIRECTION ( 'NONE',  ( 4.275831445896958607E-31, 1.000000000000000000, 1.224646799147353454E-16 ) ) ;
#232 = ADVANCED_FACE ( 'NONE', ( #82 ), #66, .T. ) ;
#233 = ORIENTED_EDGE ( 'NONE', *, *, #14, .T. ) ;
#234 = AXIS2_PLACEMENT_3D ( 'NONE', #2, #230, #231 ) ;
#235 = VERTEX_POINT ( 'NONE', #13 ) ;
#236 = CARTESIAN_POINT ( 'NONE',  ( 1.188938738807517642E-14, 1.499999999999995559, 3.405255888325785296 ) ) ;
#237 = ADVANCED_FACE ( 'NONE', ( #30, #180 ), #163, .T. ) ;
#238 = CARTESIAN_POINT ( 'NONE',  ( 5.237222008264701611E-15, -1.836970198721030427E-16, 1.500000000000000444 ) ) ;
#239 = FACE_BOUND ( 'NONE', #93, .T. ) ;
#240 = AXIS2_PLACEMENT_3D ( 'NONE', #138, #11, #143 ) ;
#241 = APPLICATION_PROTOCOL_DEFINITION ( 'international standard', 'config_control_design', 1994, #105 ) ;
#242 = PERSON_AND_ORGANIZATION ( #9, #43 ) ;
#243 = AXIS2_PLACEMENT_3D ( 'NONE', #44, #65, #164 ) ;
ENDSEC;
END-ISO-10303-21;
