ISO-10303-21;
HEADER;
FILE_DESCRIPTION (( 'STEP AP203' ),
    '1' );
FILE_NAME ('956869.step',
    '2023-02-16T09:47:38',
    ( '' ),
    ( '' ),
    'SwSTEP 2.0',
    'SolidWorks 2019',
    '' );
FILE_SCHEMA (( 'CONFIG_CONTROL_DESIGN' ));
ENDSEC;

DATA;
#1 = PLANE ( 'NONE',  #177 ) ;
#2 = EDGE_LOOP ( 'NONE', ( #42 ) ) ;
#3 = CARTESIAN_POINT ( 'NONE',  ( 7.803241324696829932E-32, -2.737008617216518972E-33, 2.234937141976062777E-17 ) ) ;
#4 = PRODUCT_RELATED_PRODUCT_CATEGORY ( 'detail', '', ( #158 ) ) ;
#5 = CONICAL_SURFACE ( 'NONE', #62, 0.4999999999999998890, 0.7853981633974428389 ) ;
#6 = CYLINDRICAL_SURFACE ( 'NONE', #14, 1.499999999999997780 ) ;
#7 = DIRECTION ( 'NONE',  ( -3.491481338843133355E-15, 1.224646799147353207E-16, -1.000000000000000000 ) ) ;
#8 = ORIENTED_EDGE ( 'NONE', *, *, #154, .F. ) ;
#9 = CC_DESIGN_DATE_AND_TIME_ASSIGNMENT ( #210, #25, ( #195 ) ) ;
#10 = CLOSED_SHELL ( 'NONE', ( #92, #75, #63, #44 ) ) ;
#11 = PERSON_AND_ORGANIZATION ( #140, #160 ) ;
#12 = CARTESIAN_POINT ( 'NONE',  ( 6.982962677686266711E-15, 0.4999999999999997780, 2.000000000000000000 ) ) ;
#13 = ADVANCED_FACE ( 'NONE', ( #192, #23 ), #6, .T. ) ;
#14 = AXIS2_PLACEMENT_3D ( 'NONE', #67, #27, #48 ) ;
#15 = VERTEX_POINT ( 'NONE', #204 ) ;
#16 = DESIGN_CONTEXT ( 'detailed design', #228, 'design' ) ;
#17 = EDGE_LOOP ( 'NONE', ( #80 ) ) ;
#18 = DATE_TIME_ROLE ( 'creation_date' ) ;
#19 = COORDINATED_UNIVERSAL_TIME_OFFSET ( 1, 0, .AHEAD. ) ;
#20 = CARTESIAN_POINT ( 'NONE',  ( 1.316288464743861212E-13, -4.616918432785521081E-15, 37.69999999999999574 ) ) ;
#21 = CIRCLE ( 'NONE', #171, 0.04999999999999999584 ) ;
#22 = DIRECTION ( 'NONE',  ( -3.491481338843133355E-15, 1.224646799147353207E-16, -1.000000000000000000 ) ) ;
#23 = FACE_OUTER_BOUND ( 'NONE', #139, .T. ) ;
#24 = DIRECTION ( 'NONE',  ( 0.000000000000000000, 1.000000000000000000, 0.000000000000000000 ) ) ;
#25 = DATE_TIME_ROLE ( 'classification_date' ) ;
#26 = LOCAL_TIME ( 10, 47, 38.00000000000000000, #19 ) ;
#27 = DIRECTION ( 'NONE',  ( -3.491481338843133355E-15, 1.224646799147353207E-16, -1.000000000000000000 ) ) ;
#28 = AXIS2_PLACEMENT_3D ( 'NONE', #161, #51, #162 ) ;
#29 = CONICAL_SURFACE ( 'NONE', #238, 1.200000000000000178, 0.7853981633974453924 ) ;
#30 = MANIFOLD_SOLID_BREP ( 'Corps-Déplacer/Copier1[2]', #10 ) ;
#31 = DATE_AND_TIME ( #199, #26 ) ;
#32 = APPROVAL_STATUS ( 'not_yet_approved' ) ;
#33 = EDGE_CURVE ( 'NONE', #112, #112, #52, .T. ) ;
#34 = VERTEX_POINT ( 'NONE', #71 ) ;
#35 = ORIENTED_EDGE ( 'NONE', *, *, #188, .T. ) ;
#36 = AXIS2_PLACEMENT_3D ( 'NONE', #60, #101, #114 ) ;
#37 = CARTESIAN_POINT ( 'NONE',  ( 1.303038575024124223E-14, 1.499999999999995559, 3.732050807568894957 ) ) ;
#38 = APPROVAL_ROLE ( '' ) ;
#39 = DIRECTION ( 'NONE',  ( -3.491481338843133355E-15, 1.224646799147353207E-16, -1.000000000000000000 ) ) ;
#40 = UNCERTAINTY_MEASURE_WITH_UNIT (LENGTH_MEASURE( 1.000000000000000082E-05 ), #87, 'distance_accuracy_value', 'NONE');
#41 = DIRECTION ( 'NONE',  ( 3.491481338843133355E-15, -1.224646799147353207E-16, 1.000000000000000000 ) ) ;
#42 = ORIENTED_EDGE ( 'NONE', *, *, #220, .T. ) ;
#43 = DIRECTION ( 'NONE',  ( 0.000000000000000000, 1.000000000000000000, 0.000000000000000000 ) ) ;
#44 = ADVANCED_FACE ( 'NONE', ( #120 ), #49, .T. ) ;
#45 = ORIENTED_EDGE ( 'NONE', *, *, #85, .F. ) ;
#46 = DIRECTION ( 'NONE',  ( -4.275831445896958607E-31, -1.000000000000000000, -1.224646799147353207E-16 ) ) ;
#47 = CALENDAR_DATE ( 2023, 16, 2 ) ;
#48 = DIRECTION ( 'NONE',  ( 4.275831445896959482E-31, 1.000000000000000000, 1.224646799147353207E-16 ) ) ;
#49 = PLANE ( 'NONE',  #88 ) ;
#50 = PRODUCT_DEFINITION ( 'UNKNOWN', '', #241, #16 ) ;
#51 = DIRECTION ( 'NONE',  ( 0.000000000000000000, 0.000000000000000000, 1.000000000000000000 ) ) ;
#52 = CIRCLE ( 'NONE', #186, 1.499999999999996003 ) ;
#53 = VERTEX_POINT ( 'NONE', #91 ) ;
#54 = VERTEX_POINT ( 'NONE', #110 ) ;
#55 = COORDINATED_UNIVERSAL_TIME_OFFSET ( 1, 0, .AHEAD. ) ;
#56 = CC_DESIGN_APPROVAL ( #223, ( #241 ) ) ;
#57 = APPLICATION_PROTOCOL_DEFINITION ( 'international standard', 'config_control_design', 1994, #228 ) ;
#58 = CARTESIAN_POINT ( 'NONE',  ( 1.326762908760390423E-13, -4.653657836759941941E-15, 38.00000000000000000 ) ) ;
#59 = APPROVAL_DATE_TIME ( #213, #182 ) ;
#60 = CARTESIAN_POINT ( 'NONE',  ( 1.303038575024124223E-14, -4.570444075744540952E-16, 3.732050807568894957 ) ) ;
#61 = CARTESIAN_POINT ( 'NONE',  ( 1.326762908760390423E-13, -4.653657836759941941E-15, 38.00000000000000000 ) ) ;
#62 = AXIS2_PLACEMENT_3D ( 'NONE', #234, #41, #94 ) ;
#63 = ADVANCED_FACE ( 'NONE', ( #104, #174 ), #82, .T. ) ;
#64 = EDGE_LOOP ( 'NONE', ( #239 ) ) ;
#65 = FACE_OUTER_BOUND ( 'NONE', #66, .T. ) ;
#66 = EDGE_LOOP ( 'NONE', ( #45 ) ) ;
#67 = CARTESIAN_POINT ( 'NONE',  ( 0.000000000000000000, 0.000000000000000000, 0.000000000000000000 ) ) ;
#68 = CC_DESIGN_SECURITY_CLASSIFICATION ( #195, ( #241 ) ) ;
#69 = APPROVAL_PERSON_ORGANIZATION ( #125, #165, #38 ) ;
#70 = PRODUCT_DEFINITION_SHAPE ( 'NONE', 'NONE',  #50 ) ;
#71 = CARTESIAN_POINT ( 'NONE',  ( 1.326762908760390423E-13, 1.199999999999995515, 38.00000000000000000 ) ) ;
#72 = APPROVAL_DATE_TIME ( #243, #165 ) ;
#73 = CALENDAR_DATE ( 2023, 16, 2 ) ;
#74 = CARTESIAN_POINT ( 'NONE',  ( 1.560648264939365986E-31, -5.474017234433037945E-33, 4.469874283952125554E-17 ) ) ;
#75 = ADVANCED_FACE ( 'NONE', ( #167, #77 ), #5, .T. ) ;
#76 = DIRECTION ( 'NONE',  ( -3.491481338843133355E-15, 1.224646799147353207E-16, -1.000000000000000000 ) ) ;
#77 = FACE_OUTER_BOUND ( 'NONE', #118, .T. ) ;
#78 = DIRECTION ( 'NONE',  ( 3.851859888774472582E-31, 1.000000000000000000, 1.084202172485504681E-16 ) ) ;
#79 = CC_DESIGN_APPROVAL ( #182, ( #195 ) ) ;
#80 = ORIENTED_EDGE ( 'NONE', *, *, #33, .T. ) ;
#81 = COORDINATED_UNIVERSAL_TIME_OFFSET ( 1, 0, .AHEAD. ) ;
#82 = CYLINDRICAL_SURFACE ( 'NONE', #84, 0.5000000000000000000 ) ;
#83 = ORIENTED_EDGE ( 'NONE', *, *, #122, .T. ) ;
#84 = AXIS2_PLACEMENT_3D ( 'NONE', #98, #156, #237 ) ;
#85 = EDGE_CURVE ( 'NONE', #34, #34, #93, .T. ) ;
#86 = LOCAL_TIME ( 10, 47, 38.00000000000000000, #95 ) ;
#87 =( LENGTH_UNIT ( ) NAMED_UNIT ( * ) SI_UNIT ( .MILLI., .METRE. ) );
#88 = AXIS2_PLACEMENT_3D ( 'NONE', #197, #100, #196 ) ;
#89 = APPLICATION_PROTOCOL_DEFINITION ( 'international standard', 'config_control_design', 1994, #144 ) ;
#90 = VERTEX_POINT ( 'NONE', #127 ) ;
#91 = CARTESIAN_POINT ( 'NONE',  ( 6.982962677686266711E-15, 0.4999999999999997780, 2.000000000000000000 ) ) ;
#92 = ADVANCED_FACE ( 'NONE', ( #230 ), #232, .F. ) ;
#93 = CIRCLE ( 'NONE', #221, 1.200000000000000178 ) ;
#94 = DIRECTION ( 'NONE',  ( -3.851859888774472582E-31, -1.000000000000000000, -1.084202172485504681E-16 ) ) ;
#95 = COORDINATED_UNIVERSAL_TIME_OFFSET ( 1, 0, .AHEAD. ) ;
#96 = FACE_BOUND ( 'NONE', #189, .T. ) ;
#97 = SHAPE_DEFINITION_REPRESENTATION ( #70, #242 ) ;
#98 = CARTESIAN_POINT ( 'NONE',  ( 0.000000000000000000, 0.000000000000000000, 0.000000000000000000 ) ) ;
#99 = DIRECTION ( 'NONE',  ( 3.491481338843133355E-15, -1.224646799147353207E-16, 1.000000000000000000 ) ) ;
#100 = DIRECTION ( 'NONE',  ( 3.491481338843133355E-15, -1.224646799147353207E-16, 1.000000000000000000 ) ) ;
#101 = DIRECTION ( 'NONE',  ( 3.491481338843133355E-15, -1.224646799147353207E-16, 1.000000000000000000 ) ) ;
#102 = LOCAL_TIME ( 10, 47, 38.00000000000000000, #55 ) ;
#103 = CC_DESIGN_PERSON_AND_ORGANIZATION_ASSIGNMENT ( #141, #133, ( #241 ) ) ;
#104 = FACE_OUTER_BOUND ( 'NONE', #105, .T. ) ;
#105 = EDGE_LOOP ( 'NONE', ( #8 ) ) ;
#106 = CC_DESIGN_PERSON_AND_ORGANIZATION_ASSIGNMENT ( #129, #222, ( #158 ) ) ;
#107 = AXIS2_PLACEMENT_3D ( 'NONE', #117, #169, #190 ) ;
#108 = EDGE_CURVE ( 'NONE', #109, #109, #145, .T. ) ;
#109 = VERTEX_POINT ( 'NONE', #12 ) ;
#110 = CARTESIAN_POINT ( 'NONE',  ( 1.774439837234214004E-31, 0.04999999999999999584, 5.082197683525802034E-17 ) ) ;
#111 = CC_DESIGN_PERSON_AND_ORGANIZATION_ASSIGNMENT ( #224, #201, ( #50 ) ) ;
#112 = VERTEX_POINT ( 'NONE', #37 ) ;
#113 = PERSON_AND_ORGANIZATION ( #140, #160 ) ;
#114 = DIRECTION ( 'NONE',  ( 0.000000000000000000, -1.000000000000000000, 0.000000000000000000 ) ) ;
#115 = APPROVAL_STATUS ( 'not_yet_approved' ) ;
#116 = ORIENTED_EDGE ( 'NONE', *, *, #85, .T. ) ;
#117 = CARTESIAN_POINT ( 'NONE',  ( 6.982962677686266711E-15, -2.449293598294706414E-16, 2.000000000000000000 ) ) ;
#118 = EDGE_LOOP ( 'NONE', ( #175 ) ) ;
#119 = DIRECTION ( 'NONE',  ( 0.000000000000000000, 1.000000000000000000, 0.000000000000000000 ) ) ;
#120 = FACE_OUTER_BOUND ( 'NONE', #64, .T. ) ;
#121 = EDGE_LOOP ( 'NONE', ( #172 ) ) ;
#122 = EDGE_CURVE ( 'NONE', #15, #15, #147, .T. ) ;
#123 = MECHANICAL_CONTEXT ( 'NONE', #144, 'mechanical' ) ;
#124 = CONICAL_SURFACE ( 'NONE', #36, 1.499999999999996003, 0.5235987755982927094 ) ;
#125 = PERSON_AND_ORGANIZATION ( #140, #160 ) ;
#126 = CC_DESIGN_PERSON_AND_ORGANIZATION_ASSIGNMENT ( #11, #207, ( #241 ) ) ;
#127 = CARTESIAN_POINT ( 'NONE',  ( 1.571166602479426773E-15, 0.4999999999999997780, 0.4500000000000047851 ) ) ;
#128 = ADVANCED_FACE ( 'NONE', ( #193, #150 ), #124, .T. ) ;
#129 = PERSON_AND_ORGANIZATION ( #140, #160 ) ;
#130 = APPROVAL_PERSON_ORGANIZATION ( #113, #223, #225 ) ;
#131 = DIRECTION ( 'NONE',  ( 0.000000000000000000, 1.000000000000000000, 0.000000000000000000 ) ) ;
#132 = CARTESIAN_POINT ( 'NONE',  ( 1.571166602479426576E-15, -5.510910596163147488E-17, 0.4500000000000047851 ) ) ;
#133 = PERSON_AND_ORGANIZATION_ROLE ( 'design_supplier' ) ;
#134 = CLOSED_SHELL ( 'NONE', ( #168, #128, #13, #209, #240 ) ) ;
#135 = CARTESIAN_POINT ( 'NONE',  ( 6.982962677686266711E-15, -2.449293598294706414E-16, 2.000000000000000000 ) ) ;
#136 = CALENDAR_DATE ( 2023, 16, 2 ) ;
#137 = EDGE_LOOP ( 'NONE', ( #152 ) ) ;
#138 = PLANE ( 'NONE',  #163 ) ;
#139 = EDGE_LOOP ( 'NONE', ( #83 ) ) ;
#140 = PERSON ( 'UNSPECIFIED', 'UNSPECIFIED', 'UNSPECIFIED', ('UNSPECIFIED'), ('UNSPECIFIED'), ('UNSPECIFIED') ) ;
#141 = PERSON_AND_ORGANIZATION ( #140, #160 ) ;
#142 = ORIENTED_EDGE ( 'NONE', *, *, #108, .T. ) ;
#143 = CIRCLE ( 'NONE', #176, 0.4999999999999998890 ) ;
#144 = APPLICATION_CONTEXT ( 'configuration controlled 3d designs of mechanical parts and assemblies' ) ;
#145 = CIRCLE ( 'NONE', #151, 0.5000000000000000000 ) ;
#146 =( NAMED_UNIT ( * ) PLANE_ANGLE_UNIT ( ) SI_UNIT ( $, .RADIAN. ) );
#147 = CIRCLE ( 'NONE', #233, 1.500000000000000000 ) ;
#148 = CALENDAR_DATE ( 2023, 16, 2 ) ;
#149 = AXIS2_PLACEMENT_3D ( 'NONE', #3, #173, #46 ) ;
#150 = FACE_OUTER_BOUND ( 'NONE', #17, .T. ) ;
#151 = AXIS2_PLACEMENT_3D ( 'NONE', #135, #39, #119 ) ;
#152 = ORIENTED_EDGE ( 'NONE', *, *, #220, .F. ) ;
#153 = FACE_OUTER_BOUND ( 'NONE', #157, .T. ) ;
#154 = EDGE_CURVE ( 'NONE', #90, #90, #143, .T. ) ;
#155 = CARTESIAN_POINT ( 'NONE',  ( 1.303038575024124223E-14, -4.570444075744540952E-16, 3.732050807568894957 ) ) ;
#156 = DIRECTION ( 'NONE',  ( -3.491481338843133355E-15, 1.224646799147353207E-16, -1.000000000000000000 ) ) ;
#157 = EDGE_LOOP ( 'NONE', ( #216 ) ) ;
#158 = PRODUCT ( '956869', '956869', '', ( #123 ) ) ;
#159 = DIRECTION ( 'NONE',  ( -3.491481338843133355E-15, 1.224646799147353207E-16, -1.000000000000000000 ) ) ;
#160 = ORGANIZATION ( 'UNSPECIFIED', 'UNSPECIFIED', '' ) ;
#161 = CARTESIAN_POINT ( 'NONE',  ( 0.000000000000000000, 0.000000000000000000, 0.000000000000000000 ) ) ;
#162 = DIRECTION ( 'NONE',  ( 1.000000000000000000, 0.000000000000000000, 0.000000000000000000 ) ) ;
#163 = AXIS2_PLACEMENT_3D ( 'NONE', #215, #159, #179 ) ;
#164 = DIRECTION ( 'NONE',  ( 0.000000000000000000, 1.000000000000000000, 0.000000000000000000 ) ) ;
#165 = APPROVAL ( #32, 'UNSPECIFIED' ) ;
#166 = DIRECTION ( 'NONE',  ( -3.491481338843133355E-15, 1.224646799147353207E-16, -1.000000000000000000 ) ) ;
#167 = FACE_BOUND ( 'NONE', #137, .T. ) ;
#168 = ADVANCED_FACE ( 'NONE', ( #227 ), #1, .F. ) ;
#169 = DIRECTION ( 'NONE',  ( -3.491481338843133355E-15, 1.224646799147353207E-16, -1.000000000000000000 ) ) ;
#170 = APPROVAL_ROLE ( '' ) ;
#171 = AXIS2_PLACEMENT_3D ( 'NONE', #74, #76, #205 ) ;
#172 = ORIENTED_EDGE ( 'NONE', *, *, #188, .F. ) ;
#173 = DIRECTION ( 'NONE',  ( 3.491481338843133355E-15, -1.224646799147353207E-16, 1.000000000000000000 ) ) ;
#174 = FACE_OUTER_BOUND ( 'NONE', #181, .T. ) ;
#175 = ORIENTED_EDGE ( 'NONE', *, *, #154, .T. ) ;
#176 = AXIS2_PLACEMENT_3D ( 'NONE', #132, #22, #78 ) ;
#177 = AXIS2_PLACEMENT_3D ( 'NONE', #187, #99, #208 ) ;
#178 = APPROVAL_DATE_TIME ( #31, #223 ) ;
#179 = DIRECTION ( 'NONE',  ( 4.275831445896958607E-31, 1.000000000000000000, 1.224646799147353207E-16 ) ) ;
#180 = LOCAL_TIME ( 10, 47, 38.00000000000000000, #184 ) ;
#181 = EDGE_LOOP ( 'NONE', ( #142 ) ) ;
#182 = APPROVAL ( #115, 'UNSPECIFIED' ) ;
#183 = APPROVAL_STATUS ( 'not_yet_approved' ) ;
#184 = COORDINATED_UNIVERSAL_TIME_OFFSET ( 1, 0, .AHEAD. ) ;
#185 = DIRECTION ( 'NONE',  ( -3.491481338843133355E-15, 1.224646799147353207E-16, -1.000000000000000000 ) ) ;
#186 = AXIS2_PLACEMENT_3D ( 'NONE', #155, #7, #24 ) ;
#187 = CARTESIAN_POINT ( 'NONE',  ( 6.982962677686266711E-15, 3.749399456654640598E-33, 2.000000000000000000 ) ) ;
#188 = EDGE_CURVE ( 'NONE', #53, #53, #198, .T. ) ;
#189 = EDGE_LOOP ( 'NONE', ( #116 ) ) ;
#190 = DIRECTION ( 'NONE',  ( 0.000000000000000000, 1.000000000000000000, 0.000000000000000000 ) ) ;
#191 = MANIFOLD_SOLID_BREP ( 'Corps-Déplacer/Copier1[1]', #134 ) ;
#192 = FACE_OUTER_BOUND ( 'NONE', #236, .T. ) ;
#193 = FACE_BOUND ( 'NONE', #121, .T. ) ;
#194 = PERSON_AND_ORGANIZATION_ROLE ( 'classification_officer' ) ;
#195 = SECURITY_CLASSIFICATION ( '', '', #217 ) ;
#196 = DIRECTION ( 'NONE',  ( -4.275831445896958607E-31, -1.000000000000000000, -1.224646799147353207E-16 ) ) ;
#197 = CARTESIAN_POINT ( 'NONE',  ( 6.982962677686266711E-15, 3.749399456654640598E-33, 2.000000000000000000 ) ) ;
#198 = CIRCLE ( 'NONE', #107, 0.5000000000000000000 ) ;
#199 = CALENDAR_DATE ( 2023, 16, 2 ) ;
#200 =( NAMED_UNIT ( * ) SI_UNIT ( $, .STERADIAN. ) SOLID_ANGLE_UNIT ( ) );
#201 = PERSON_AND_ORGANIZATION_ROLE ( 'creator' ) ;
#202 = DATE_AND_TIME ( #73, #102 ) ;
#203 = CC_DESIGN_APPROVAL ( #165, ( #50 ) ) ;
#204 = CARTESIAN_POINT ( 'NONE',  ( 1.316288464743861212E-13, 1.499999999999995559, 37.69999999999999574 ) ) ;
#205 = DIRECTION ( 'NONE',  ( 4.275831445896960358E-31, 1.000000000000000000, 1.224646799147352714E-16 ) ) ;
#206 = CC_DESIGN_DATE_AND_TIME_ASSIGNMENT ( #202, #18, ( #50 ) ) ;
#207 = PERSON_AND_ORGANIZATION_ROLE ( 'creator' ) ;
#208 = DIRECTION ( 'NONE',  ( -4.275831445896958607E-31, -1.000000000000000000, -1.224646799147353207E-16 ) ) ;
#209 = ADVANCED_FACE ( 'NONE', ( #153, #96 ), #29, .T. ) ;
#210 = DATE_AND_TIME ( #136, #86 ) ;
#211 =( GEOMETRIC_REPRESENTATION_CONTEXT ( 3 ) GLOBAL_UNCERTAINTY_ASSIGNED_CONTEXT ( ( #40 ) ) GLOBAL_UNIT_ASSIGNED_CONTEXT ( ( #87, #146, #200 ) ) REPRESENTATION_CONTEXT ( 'NONE', 'WORKASPACE' ) );
#212 = DIRECTION ( 'NONE',  ( -3.491481338843133355E-15, 1.224646799147353207E-16, -1.000000000000000000 ) ) ;
#213 = DATE_AND_TIME ( #47, #226 ) ;
#214 = ORIENTED_EDGE ( 'NONE', *, *, #33, .F. ) ;
#215 = CARTESIAN_POINT ( 'NONE',  ( 1.326762908760390423E-13, 8.998558695971078593E-33, 38.00000000000000000 ) ) ;
#216 = ORIENTED_EDGE ( 'NONE', *, *, #122, .F. ) ;
#217 = SECURITY_CLASSIFICATION_LEVEL ( 'unclassified' ) ;
#218 = APPROVAL_PERSON_ORGANIZATION ( #229, #182, #170 ) ;
#219 = EDGE_LOOP ( 'NONE', ( #35 ) ) ;
#220 = EDGE_CURVE ( 'NONE', #54, #54, #21, .T. ) ;
#221 = AXIS2_PLACEMENT_3D ( 'NONE', #61, #185, #164 ) ;
#222 = PERSON_AND_ORGANIZATION_ROLE ( 'design_owner' ) ;
#223 = APPROVAL ( #183, 'UNSPECIFIED' ) ;
#224 = PERSON_AND_ORGANIZATION ( #140, #160 ) ;
#225 = APPROVAL_ROLE ( '' ) ;
#226 = LOCAL_TIME ( 10, 47, 38.00000000000000000, #81 ) ;
#227 = FACE_OUTER_BOUND ( 'NONE', #219, .T. ) ;
#228 = APPLICATION_CONTEXT ( 'configuration controlled 3d designs of mechanical parts and assemblies' ) ;
#229 = PERSON_AND_ORGANIZATION ( #140, #160 ) ;
#230 = FACE_OUTER_BOUND ( 'NONE', #2, .T. ) ;
#231 = PERSON_AND_ORGANIZATION ( #140, #160 ) ;
#232 = PLANE ( 'NONE',  #149 ) ;
#233 = AXIS2_PLACEMENT_3D ( 'NONE', #20, #212, #43 ) ;
#234 = CARTESIAN_POINT ( 'NONE',  ( 1.571166602479426576E-15, -5.510910596163147488E-17, 0.4500000000000047851 ) ) ;
#235 = CC_DESIGN_PERSON_AND_ORGANIZATION_ASSIGNMENT ( #231, #194, ( #195 ) ) ;
#236 = EDGE_LOOP ( 'NONE', ( #214 ) ) ;
#237 = DIRECTION ( 'NONE',  ( 4.275831445896958607E-31, 1.000000000000000000, 1.224646799147353207E-16 ) ) ;
#238 = AXIS2_PLACEMENT_3D ( 'NONE', #58, #166, #131 ) ;
#239 = ORIENTED_EDGE ( 'NONE', *, *, #108, .F. ) ;
#240 = ADVANCED_FACE ( 'NONE', ( #65 ), #138, .F. ) ;
#241 = PRODUCT_DEFINITION_FORMATION_WITH_SPECIFIED_SOURCE ( 'ANY', '', #158, .NOT_KNOWN. ) ;
#242 = ADVANCED_BREP_SHAPE_REPRESENTATION ( '956869', ( #191, #30, #28 ), #211 ) ;
#243 = DATE_AND_TIME ( #148, #180 ) ;
ENDSEC;
END-ISO-10303-21;
