ISO-10303-21;
HEADER;
FILE_DESCRIPTION (( 'STEP AP203' ),
    '1' );
FILE_NAME ('956868.step',
    '2021-11-24T14:51:29',
    ( '' ),
    ( '' ),
    'SwSTEP 2.0',
    'SolidWorks 2019',
    '' );
FILE_SCHEMA (( 'CONFIG_CONTROL_DESIGN' ));
ENDSEC;

DATA;
#1 = APPROVAL_STATUS ( 'not_yet_approved' ) ;
#2 = DIRECTION ( 'NONE',  ( -4.275831445896958607E-31, -1.000000000000000000, -1.224646799147353207E-16 ) ) ;
#3 = ORIENTED_EDGE ( 'NONE', *, *, #137, .T. ) ;
#4 = FACE_BOUND ( 'NONE', #172, .T. ) ;
#5 = DIRECTION ( 'NONE',  ( -3.491481338843133355E-15, 1.224646799147353207E-16, -1.000000000000000000 ) ) ;
#6 = CARTESIAN_POINT ( 'NONE',  ( 5.237222008264700822E-15, 0.3999999999999999112, 1.500000000000000222 ) ) ;
#7 = CARTESIAN_POINT ( 'NONE',  ( 5.237222008264700822E-15, -1.836970198721030181E-16, 1.500000000000000222 ) ) ;
#8 = CYLINDRICAL_SURFACE ( 'NONE', #124, 1.499999999999997780 ) ;
#9 = FACE_OUTER_BOUND ( 'NONE', #27, .T. ) ;
#10 = EDGE_LOOP ( 'NONE', ( #80 ) ) ;
#11 = LOCAL_TIME ( 15, 51, 29.00000000000000000, #167 ) ;
#12 = AXIS2_PLACEMENT_3D ( 'NONE', #133, #39, #201 ) ;
#13 = EDGE_CURVE ( 'NONE', #199, #199, #238, .T. ) ;
#14 = AXIS2_PLACEMENT_3D ( 'NONE', #90, #212, #47 ) ;
#15 = DATE_AND_TIME ( #164, #11 ) ;
#16 = DATE_AND_TIME ( #163, #109 ) ;
#17 = ADVANCED_FACE ( 'NONE', ( #92, #128 ), #8, .T. ) ;
#18 = DIRECTION ( 'NONE',  ( 0.0000000000000000000, 1.000000000000000000, 0.0000000000000000000 ) ) ;
#19 = DATE_AND_TIME ( #227, #195 ) ;
#20 = AXIS2_PLACEMENT_3D ( 'NONE', #153, #200, #75 ) ;
#21 = CARTESIAN_POINT ( 'NONE',  ( 1.326762908760390423E-13, -4.653657836759941941E-15, 38.00000000000000000 ) ) ;
#22 = DIRECTION ( 'NONE',  ( 4.275831445896958607E-31, 1.000000000000000000, 1.224646799147353207E-16 ) ) ;
#23 = VERTEX_POINT ( 'NONE', #152 ) ;
#24 = CARTESIAN_POINT ( 'NONE',  ( 3.548879674468427680E-32, 0.04000000000000000083, 1.016439536705160407E-17 ) ) ;
#25 = CC_DESIGN_DATE_AND_TIME_ASSIGNMENT ( #16, #207, ( #59 ) ) ;
#26 = DIRECTION ( 'NONE',  ( -3.491481338843133355E-15, 1.224646799147353207E-16, -1.000000000000000000 ) ) ;
#27 = EDGE_LOOP ( 'NONE', ( #136 ) ) ;
#28 = ADVANCED_FACE ( 'NONE', ( #130, #198 ), #202, .T. ) ;
#29 = AXIS2_PLACEMENT_3D ( 'NONE', #21, #26, #18 ) ;
#30 = LOCAL_TIME ( 15, 51, 29.00000000000000000, #78 ) ;
#31 = ADVANCED_FACE ( 'NONE', ( #139 ), #117, .F. ) ;
#32 = ADVANCED_FACE ( 'NONE', ( #148, #4 ), #45, .T. ) ;
#33 = APPROVAL_ROLE ( '' ) ;
#34 = ORIENTED_EDGE ( 'NONE', *, *, #13, .F. ) ;
#35 = CYLINDRICAL_SURFACE ( 'NONE', #187, 0.3999999999999999667 ) ;
#36 = DIRECTION ( 'NONE',  ( -3.491481338843133355E-15, 1.224646799147353207E-16, -1.000000000000000000 ) ) ;
#37 = DIRECTION ( 'NONE',  ( 4.275831445896959482E-31, 1.000000000000000000, 1.224646799147353207E-16 ) ) ;
#38 = DIRECTION ( 'NONE',  ( 0.0000000000000000000, 1.000000000000000000, 0.0000000000000000000 ) ) ;
#39 = DIRECTION ( 'NONE',  ( 3.491481338843133355E-15, -1.224646799147353207E-16, 1.000000000000000000 ) ) ;
#40 = PRODUCT_DEFINITION_FORMATION_WITH_SPECIFIED_SOURCE ( 'ANY', '', #68, .NOT_KNOWN. ) ;
#41 = EDGE_LOOP ( 'NONE', ( #52 ) ) ;
#42 = ADVANCED_FACE ( 'NONE', ( #114, #93 ), #224, .T. ) ;
#43 = CARTESIAN_POINT ( 'NONE',  ( 1.838547096109644248E-32, -6.448755120880502210E-34, 5.265808170462191302E-18 ) ) ;
#44 = PERSON_AND_ORGANIZATION_ROLE ( 'design_owner' ) ;
#45 = CONICAL_SURFACE ( 'NONE', #122, 1.200000000000000178, 0.7853981633974453924 ) ;
#46 = PERSON_AND_ORGANIZATION_ROLE ( 'classification_officer' ) ;
#47 = DIRECTION ( 'NONE',  ( -4.275831445896958607E-31, -1.000000000000000000, -1.224646799147353207E-16 ) ) ;
#48 = EDGE_CURVE ( 'NONE', #71, #71, #85, .T. ) ;
#49 =( GEOMETRIC_REPRESENTATION_CONTEXT ( 3 ) GLOBAL_UNCERTAINTY_ASSIGNED_CONTEXT ( ( #145 ) ) GLOBAL_UNIT_ASSIGNED_CONTEXT ( ( #126, #50, #192 ) ) REPRESENTATION_CONTEXT ( 'NONE', 'WORKASPACE' ) );
#50 =( NAMED_UNIT ( * ) PLANE_ANGLE_UNIT ( ) SI_UNIT ( $, .RADIAN. ) );
#51 = CARTESIAN_POINT ( 'NONE',  ( 1.256933281983541340E-15, -4.408728476930518483E-17, 0.3600000000000038169 ) ) ;
#52 = ORIENTED_EDGE ( 'NONE', *, *, #48, .T. ) ;
#53 = ADVANCED_BREP_SHAPE_REPRESENTATION ( '956868', ( #83, #70, #66 ), #49 ) ;
#54 = ADVANCED_FACE ( 'NONE', ( #173 ), #55, .F. ) ;
#55 = PLANE ( 'NONE',  #12 ) ;
#56 = PRODUCT_DEFINITION_SHAPE ( 'NONE', 'NONE',  #59 ) ;
#57 = EDGE_LOOP ( 'NONE', ( #174 ) ) ;
#58 = PERSON_AND_ORGANIZATION ( #100, #178 ) ;
#59 = PRODUCT_DEFINITION ( 'UNKNOWN', '', #40, #105 ) ;
#60 = AXIS2_PLACEMENT_3D ( 'NONE', #67, #72, #226 ) ;
#61 = DATE_TIME_ROLE ( 'classification_date' ) ;
#62 = CC_DESIGN_APPROVAL ( #220, ( #135 ) ) ;
#63 = EDGE_CURVE ( 'NONE', #23, #23, #147, .T. ) ;
#64 = EDGE_LOOP ( 'NONE', ( #161 ) ) ;
#65 = AXIS2_PLACEMENT_3D ( 'NONE', #7, #208, #38 ) ;
#66 = AXIS2_PLACEMENT_3D ( 'NONE', #134, #181, #203 ) ;
#67 = CARTESIAN_POINT ( 'NONE',  ( 5.237222008264700822E-15, -1.836970198721030181E-16, 1.500000000000000222 ) ) ;
#68 = PRODUCT ( '956868', '956868', '', ( #118 ) ) ;
#69 = APPROVAL_DATE_TIME ( #86, #79 ) ;
#70 = MANIFOLD_SOLID_BREP ( 'Corps-Déplacer/Copier1[2]', #96 ) ;
#71 = VERTEX_POINT ( 'NONE', #209 ) ;
#72 = DIRECTION ( 'NONE',  ( -3.491481338843133355E-15, 1.224646799147353207E-16, -1.000000000000000000 ) ) ;
#73 = CARTESIAN_POINT ( 'NONE',  ( 1.316288464743861212E-13, 1.499999999999995559, 37.69999999999999574 ) ) ;
#74 = DIRECTION ( 'NONE',  ( 0.0000000000000000000, 1.000000000000000000, 0.0000000000000000000 ) ) ;
#75 = DIRECTION ( 'NONE',  ( 0.0000000000000000000, -1.000000000000000000, 0.0000000000000000000 ) ) ;
#76 = FACE_OUTER_BOUND ( 'NONE', #151, .T. ) ;
#77 = EDGE_LOOP ( 'NONE', ( #111 ) ) ;
#78 = COORDINATED_UNIVERSAL_TIME_OFFSET ( 1, 0, .AHEAD. ) ;
#79 = APPROVAL ( #218, 'UNSPECIFIED' ) ;
#80 = ORIENTED_EDGE ( 'NONE', *, *, #63, .F. ) ;
#81 = CIRCLE ( 'NONE', #221, 1.499999999999996003 ) ;
#82 = DIRECTION ( 'NONE',  ( -3.491481338843133355E-15, 1.224646799147353207E-16, -1.000000000000000000 ) ) ;
#83 = MANIFOLD_SOLID_BREP ( 'Corps-Déplacer/Copier1[1]', #229 ) ;
#84 = EDGE_CURVE ( 'NONE', #141, #141, #119, .T. ) ;
#85 = CIRCLE ( 'NONE', #194, 0.3999999999999999112 ) ;
#86 = DATE_AND_TIME ( #159, #30 ) ;
#87 = ORIENTED_EDGE ( 'NONE', *, *, #48, .F. ) ;
#88 = COORDINATED_UNIVERSAL_TIME_OFFSET ( 1, 0, .AHEAD. ) ;
#89 = APPROVAL_STATUS ( 'not_yet_approved' ) ;
#90 = CARTESIAN_POINT ( 'NONE',  ( 5.237222008264700033E-15, 2.999519565323712821E-33, 1.500000000000000000 ) ) ;
#91 = PLANE ( 'NONE',  #210 ) ;
#92 = FACE_OUTER_BOUND ( 'NONE', #132, .T. ) ;
#93 = FACE_OUTER_BOUND ( 'NONE', #41, .T. ) ;
#94 = ORIENTED_EDGE ( 'NONE', *, *, #137, .F. ) ;
#95 = VERTEX_POINT ( 'NONE', #73 ) ;
#96 = CLOSED_SHELL ( 'NONE', ( #54, #42, #154, #237 ) ) ;
#97 = CARTESIAN_POINT ( 'NONE',  ( 1.326762908760390423E-13, -4.653657836759941941E-15, 38.00000000000000000 ) ) ;
#98 = ORIENTED_EDGE ( 'NONE', *, *, #205, .T. ) ;
#99 = ADVANCED_FACE ( 'NONE', ( #9 ), #215, .F. ) ;
#100 = PERSON ( 'UNSPECIFIED', 'UNSPECIFIED', 'UNSPECIFIED', ('UNSPECIFIED'), ('UNSPECIFIED'), ('UNSPECIFIED') ) ;
#101 = APPROVAL_PERSON_ORGANIZATION ( #116, #79, #138 ) ;
#102 = COORDINATED_UNIVERSAL_TIME_OFFSET ( 1, 0, .AHEAD. ) ;
#103 = CIRCLE ( 'NONE', #184, 1.500000000000000000 ) ;
#104 = APPROVAL_DATE_TIME ( #170, #162 ) ;
#105 = DESIGN_CONTEXT ( 'detailed design', #166, 'design' ) ;
#106 = PERSON_AND_ORGANIZATION_ROLE ( 'creator' ) ;
#107 = DIRECTION ( 'NONE',  ( 4.275831445896958607E-31, 1.000000000000000000, 1.224646799147353207E-16 ) ) ;
#108 = FACE_OUTER_BOUND ( 'NONE', #234, .T. ) ;
#109 = LOCAL_TIME ( 15, 51, 29.00000000000000000, #102 ) ;
#110 = DIRECTION ( 'NONE',  ( 0.0000000000000000000, 1.000000000000000000, 0.0000000000000000000 ) ) ;
#111 = ORIENTED_EDGE ( 'NONE', *, *, #13, .T. ) ;
#112 = DIRECTION ( 'NONE',  ( 0.0000000000000000000, 1.000000000000000000, 0.0000000000000000000 ) ) ;
#113 = ORIENTED_EDGE ( 'NONE', *, *, #63, .T. ) ;
#114 = FACE_BOUND ( 'NONE', #180, .T. ) ;
#115 = CC_DESIGN_PERSON_AND_ORGANIZATION_ASSIGNMENT ( #191, #106, ( #59 ) ) ;
#116 = PERSON_AND_ORGANIZATION ( #100, #178 ) ;
#117 = PLANE ( 'NONE',  #169 ) ;
#118 = MECHANICAL_CONTEXT ( 'NONE', #157, 'mechanical' ) ;
#119 = CIRCLE ( 'NONE', #65, 0.4000000000000000777 ) ;
#120 = CC_DESIGN_APPROVAL ( #79, ( #59 ) ) ;
#121 = CC_DESIGN_PERSON_AND_ORGANIZATION_ASSIGNMENT ( #206, #186, ( #40 ) ) ;
#122 = AXIS2_PLACEMENT_3D ( 'NONE', #97, #127, #110 ) ;
#123 = SHAPE_DEFINITION_REPRESENTATION ( #56, #53 ) ;
#124 = AXIS2_PLACEMENT_3D ( 'NONE', #211, #5, #37 ) ;
#125 = PERSON_AND_ORGANIZATION ( #100, #178 ) ;
#126 =( LENGTH_UNIT ( ) NAMED_UNIT ( * ) SI_UNIT ( .MILLI., .METRE. ) );
#127 = DIRECTION ( 'NONE',  ( -3.491481338843133355E-15, 1.224646799147353207E-16, -1.000000000000000000 ) ) ;
#128 = FACE_OUTER_BOUND ( 'NONE', #235, .T. ) ;
#129 = DIRECTION ( 'NONE',  ( -3.491481338843133355E-15, 1.224646799147353207E-16, -1.000000000000000000 ) ) ;
#130 = FACE_BOUND ( 'NONE', #64, .T. ) ;
#131 = DIRECTION ( 'NONE',  ( -3.491481338843133355E-15, 1.224646799147353207E-16, -1.000000000000000000 ) ) ;
#132 = EDGE_LOOP ( 'NONE', ( #94 ) ) ;
#133 = CARTESIAN_POINT ( 'NONE',  ( 9.192735480548221242E-33, -3.224377560440251105E-34, 2.632904085231095651E-18 ) ) ;
#134 = CARTESIAN_POINT ( 'NONE',  ( 0.0000000000000000000, 0.0000000000000000000, 0.0000000000000000000 ) ) ;
#135 = SECURITY_CLASSIFICATION ( '', '', #222 ) ;
#136 = ORIENTED_EDGE ( 'NONE', *, *, #84, .T. ) ;
#137 = EDGE_CURVE ( 'NONE', #160, #160, #81, .T. ) ;
#138 = APPROVAL_ROLE ( '' ) ;
#139 = FACE_OUTER_BOUND ( 'NONE', #10, .T. ) ;
#140 = PRODUCT_RELATED_PRODUCT_CATEGORY ( 'detail', '', ( #68 ) ) ;
#141 = VERTEX_POINT ( 'NONE', #142 ) ;
#142 = CARTESIAN_POINT ( 'NONE',  ( 5.237222008264700822E-15, 0.3999999999999999112, 1.500000000000000222 ) ) ;
#143 = APPLICATION_PROTOCOL_DEFINITION ( 'international standard', 'config_control_design', 1994, #166 ) ;
#144 = APPROVAL_ROLE ( '' ) ;
#145 = UNCERTAINTY_MEASURE_WITH_UNIT (LENGTH_MEASURE( 1.000000000000000082E-05 ), #126, 'distance_accuracy_value', 'NONE');
#146 = CALENDAR_DATE ( 2021, 24, 11 ) ;
#147 = CIRCLE ( 'NONE', #29, 1.200000000000000178 ) ;
#148 = FACE_OUTER_BOUND ( 'NONE', #57, .T. ) ;
#149 = APPROVAL_DATE_TIME ( #19, #220 ) ;
#150 = FACE_OUTER_BOUND ( 'NONE', #216, .T. ) ;
#151 = EDGE_LOOP ( 'NONE', ( #213 ) ) ;
#152 = CARTESIAN_POINT ( 'NONE',  ( 1.326762908760390423E-13, 1.199999999999995515, 38.00000000000000000 ) ) ;
#153 = CARTESIAN_POINT ( 'NONE',  ( 1.188938738807517642E-14, -4.170235723915849897E-16, 3.405255888325785296 ) ) ;
#154 = ADVANCED_FACE ( 'NONE', ( #150, #76 ), #35, .T. ) ;
#155 = APPROVAL_PERSON_ORGANIZATION ( #125, #220, #144 ) ;
#156 = CARTESIAN_POINT ( 'NONE',  ( 1.256933281983541340E-15, -4.408728476930518483E-17, 0.3600000000000038169 ) ) ;
#157 = APPLICATION_CONTEXT ( 'configuration controlled 3d designs of mechanical parts and assemblies' ) ;
#158 = CARTESIAN_POINT ( 'NONE',  ( 0.0000000000000000000, 0.0000000000000000000, 0.0000000000000000000 ) ) ;
#159 = CALENDAR_DATE ( 2021, 24, 11 ) ;
#160 = VERTEX_POINT ( 'NONE', #168 ) ;
#161 = ORIENTED_EDGE ( 'NONE', *, *, #84, .F. ) ;
#162 = APPROVAL ( #89, 'UNSPECIFIED' ) ;
#163 = CALENDAR_DATE ( 2021, 24, 11 ) ;
#164 = CALENDAR_DATE ( 2021, 24, 11 ) ;
#165 = COORDINATED_UNIVERSAL_TIME_OFFSET ( 1, 0, .AHEAD. ) ;
#166 = APPLICATION_CONTEXT ( 'configuration controlled 3d designs of mechanical parts and assemblies' ) ;
#167 = COORDINATED_UNIVERSAL_TIME_OFFSET ( 1, 0, .AHEAD. ) ;
#168 = CARTESIAN_POINT ( 'NONE',  ( 1.188938738807517642E-14, 1.499999999999995559, 3.405255888325785296 ) ) ;
#169 = AXIS2_PLACEMENT_3D ( 'NONE', #219, #82, #107 ) ;
#170 = DATE_AND_TIME ( #146, #225 ) ;
#171 = DIRECTION ( 'NONE',  ( 3.491481338843133355E-15, -1.224646799147353207E-16, 1.000000000000000000 ) ) ;
#172 = EDGE_LOOP ( 'NONE', ( #113 ) ) ;
#173 = FACE_OUTER_BOUND ( 'NONE', #77, .T. ) ;
#174 = ORIENTED_EDGE ( 'NONE', *, *, #205, .F. ) ;
#175 = VERTEX_POINT ( 'NONE', #6 ) ;
#176 = DIRECTION ( 'NONE',  ( -4.814824860968090508E-31, -1.000000000000000000, -1.355252715606880789E-16 ) ) ;
#177 = ORIENTED_EDGE ( 'NONE', *, *, #231, .F. ) ;
#178 = ORGANIZATION ( 'UNSPECIFIED', 'UNSPECIFIED', '' ) ;
#179 = DIRECTION ( 'NONE',  ( 4.814824860968090508E-31, 1.000000000000000000, 1.355252715606880789E-16 ) ) ;
#180 = EDGE_LOOP ( 'NONE', ( #34 ) ) ;
#181 = DIRECTION ( 'NONE',  ( 0.0000000000000000000, 0.0000000000000000000, 1.000000000000000000 ) ) ;
#182 = CIRCLE ( 'NONE', #60, 0.4000000000000000777 ) ;
#183 = CC_DESIGN_PERSON_AND_ORGANIZATION_ASSIGNMENT ( #189, #46, ( #135 ) ) ;
#184 = AXIS2_PLACEMENT_3D ( 'NONE', #190, #36, #112 ) ;
#185 = CC_DESIGN_DATE_AND_TIME_ASSIGNMENT ( #15, #61, ( #135 ) ) ;
#186 = PERSON_AND_ORGANIZATION_ROLE ( 'creator' ) ;
#187 = AXIS2_PLACEMENT_3D ( 'NONE', #158, #131, #233 ) ;
#188 = CC_DESIGN_PERSON_AND_ORGANIZATION_ASSIGNMENT ( #58, #44, ( #68 ) ) ;
#189 = PERSON_AND_ORGANIZATION ( #100, #178 ) ;
#190 = CARTESIAN_POINT ( 'NONE',  ( 1.316288464743861212E-13, -4.616918432785521081E-15, 37.69999999999999574 ) ) ;
#191 = PERSON_AND_ORGANIZATION ( #100, #178 ) ;
#192 =( NAMED_UNIT ( * ) SI_UNIT ( $, .STERADIAN. ) SOLID_ANGLE_UNIT ( ) );
#193 = CARTESIAN_POINT ( 'NONE',  ( 5.237222008264700033E-15, 2.999519565323712821E-33, 1.500000000000000000 ) ) ;
#194 = AXIS2_PLACEMENT_3D ( 'NONE', #156, #232, #179 ) ;
#195 = LOCAL_TIME ( 15, 51, 29.00000000000000000, #165 ) ;
#196 = DIRECTION ( 'NONE',  ( -3.491481338843133355E-15, 1.224646799147353207E-16, -1.000000000000000000 ) ) ;
#197 = CARTESIAN_POINT ( 'NONE',  ( 1.188938738807517642E-14, -4.170235723915849897E-16, 3.405255888325785296 ) ) ;
#198 = FACE_OUTER_BOUND ( 'NONE', #217, .T. ) ;
#199 = VERTEX_POINT ( 'NONE', #24 ) ;
#200 = DIRECTION ( 'NONE',  ( 3.491481338843133355E-15, -1.224646799147353207E-16, 1.000000000000000000 ) ) ;
#201 = DIRECTION ( 'NONE',  ( -4.275831445896958607E-31, -1.000000000000000000, -1.224646799147353207E-16 ) ) ;
#202 = CONICAL_SURFACE ( 'NONE', #20, 1.499999999999996003, 0.5235987755982927094 ) ;
#203 = DIRECTION ( 'NONE',  ( 1.000000000000000000, 0.0000000000000000000, 0.0000000000000000000 ) ) ;
#204 = CC_DESIGN_SECURITY_CLASSIFICATION ( #135, ( #40 ) ) ;
#205 = EDGE_CURVE ( 'NONE', #95, #95, #103, .T. ) ;
#206 = PERSON_AND_ORGANIZATION ( #100, #178 ) ;
#207 = DATE_TIME_ROLE ( 'creation_date' ) ;
#208 = DIRECTION ( 'NONE',  ( -3.491481338843133355E-15, 1.224646799147353207E-16, -1.000000000000000000 ) ) ;
#209 = CARTESIAN_POINT ( 'NONE',  ( 1.256933281983541537E-15, 0.3999999999999998557, 0.3600000000000038725 ) ) ;
#210 = AXIS2_PLACEMENT_3D ( 'NONE', #193, #171, #2 ) ;
#211 = CARTESIAN_POINT ( 'NONE',  ( 0.0000000000000000000, 0.0000000000000000000, 0.0000000000000000000 ) ) ;
#212 = DIRECTION ( 'NONE',  ( 3.491481338843133355E-15, -1.224646799147353207E-16, 1.000000000000000000 ) ) ;
#213 = ORIENTED_EDGE ( 'NONE', *, *, #231, .T. ) ;
#214 = DIRECTION ( 'NONE',  ( 3.491481338843133355E-15, -1.224646799147353207E-16, 1.000000000000000000 ) ) ;
#215 = PLANE ( 'NONE',  #14 ) ;
#216 = EDGE_LOOP ( 'NONE', ( #87 ) ) ;
#217 = EDGE_LOOP ( 'NONE', ( #3 ) ) ;
#218 = APPROVAL_STATUS ( 'not_yet_approved' ) ;
#219 = CARTESIAN_POINT ( 'NONE',  ( 1.326762908760390423E-13, 8.998558695971078593E-33, 38.00000000000000000 ) ) ;
#220 = APPROVAL ( #1, 'UNSPECIFIED' ) ;
#221 = AXIS2_PLACEMENT_3D ( 'NONE', #197, #129, #74 ) ;
#222 = SECURITY_CLASSIFICATION_LEVEL ( 'unclassified' ) ;
#223 = PERSON_AND_ORGANIZATION ( #100, #178 ) ;
#224 = CONICAL_SURFACE ( 'NONE', #242, 0.3999999999999999112, 0.7853981633974428389 ) ;
#225 = LOCAL_TIME ( 15, 51, 29.00000000000000000, #88 ) ;
#226 = DIRECTION ( 'NONE',  ( 0.0000000000000000000, 1.000000000000000000, 0.0000000000000000000 ) ) ;
#227 = CALENDAR_DATE ( 2021, 24, 11 ) ;
#228 = APPLICATION_PROTOCOL_DEFINITION ( 'international standard', 'config_control_design', 1994, #157 ) ;
#229 = CLOSED_SHELL ( 'NONE', ( #99, #28, #17, #32, #31 ) ) ;
#230 = CC_DESIGN_APPROVAL ( #162, ( #40 ) ) ;
#231 = EDGE_CURVE ( 'NONE', #175, #175, #182, .T. ) ;
#232 = DIRECTION ( 'NONE',  ( -3.491481338843133355E-15, 1.224646799147353207E-16, -1.000000000000000000 ) ) ;
#233 = DIRECTION ( 'NONE',  ( 4.275831445896958607E-31, 1.000000000000000000, 1.224646799147353207E-16 ) ) ;
#234 = EDGE_LOOP ( 'NONE', ( #177 ) ) ;
#235 = EDGE_LOOP ( 'NONE', ( #98 ) ) ;
#236 = AXIS2_PLACEMENT_3D ( 'NONE', #43, #196, #22 ) ;
#237 = ADVANCED_FACE ( 'NONE', ( #108 ), #91, .T. ) ;
#238 = CIRCLE ( 'NONE', #236, 0.04000000000000000083 ) ;
#239 = CC_DESIGN_PERSON_AND_ORGANIZATION_ASSIGNMENT ( #223, #241, ( #40 ) ) ;
#240 = PERSON_AND_ORGANIZATION ( #100, #178 ) ;
#241 = PERSON_AND_ORGANIZATION_ROLE ( 'design_supplier' ) ;
#242 = AXIS2_PLACEMENT_3D ( 'NONE', #51, #214, #176 ) ;
#243 = APPROVAL_PERSON_ORGANIZATION ( #240, #162, #33 ) ;
ENDSEC;
END-ISO-10303-21;
