ISO-10303-21;
HEADER;
FILE_DESCRIPTION (( 'STEP AP203' ),
    '1' );
FILE_NAME ('956867.step',
    '2021-11-24T14:55:45',
    ( '' ),
    ( '' ),
    'SwSTEP 2.0',
    'SolidWorks 2019',
    '' );
FILE_SCHEMA (( 'CONFIG_CONTROL_DESIGN' ));
ENDSEC;

DATA;
#1 = FACE_BOUND ( 'NONE', #32, .T. ) ;
#2 = DIRECTION ( 'NONE',  ( -4.275831445896958607E-31, -1.000000000000000000, -1.224646799147353207E-16 ) ) ;
#3 = DIRECTION ( 'NONE',  ( 0.0000000000000000000, 1.000000000000000000, 0.0000000000000000000 ) ) ;
#4 = FACE_OUTER_BOUND ( 'NONE', #13, .T. ) ;
#5 = CC_DESIGN_PERSON_AND_ORGANIZATION_ASSIGNMENT ( #232, #64, ( #117 ) ) ;
#6 = APPROVAL_STATUS ( 'not_yet_approved' ) ;
#7 = VERTEX_POINT ( 'NONE', #172 ) ;
#8 = CONICAL_SURFACE ( 'NONE', #42, 1.499999999999996003, 0.5235987755982924874 ) ;
#9 = MECHANICAL_CONTEXT ( 'NONE', #214, 'mechanical' ) ;
#10 = APPROVAL_STATUS ( 'not_yet_approved' ) ;
#11 = APPROVAL_PERSON_ORGANIZATION ( #235, #175, #87 ) ;
#12 = ORIENTED_EDGE ( 'NONE', *, *, #150, .T. ) ;
#13 = EDGE_LOOP ( 'NONE', ( #222 ) ) ;
#14 = DIRECTION ( 'NONE',  ( 4.275831445896959482E-31, 1.000000000000000000, 1.224646799147353207E-16 ) ) ;
#15 = CIRCLE ( 'NONE', #155, 1.200000000000000178 ) ;
#16 = AXIS2_PLACEMENT_3D ( 'NONE', #208, #190, #47 ) ;
#17 = CC_DESIGN_DATE_AND_TIME_ASSIGNMENT ( #100, #71, ( #103 ) ) ;
#18 = DIRECTION ( 'NONE',  ( -3.491481338843133355E-15, 1.224646799147353207E-16, -1.000000000000000000 ) ) ;
#19 = CARTESIAN_POINT ( 'NONE',  ( 6.982962677686266711E-15, -2.449293598294706414E-16, 2.000000000000000000 ) ) ;
#20 = CYLINDRICAL_SURFACE ( 'NONE', #82, 1.499999999999997780 ) ;
#21 = CC_DESIGN_PERSON_AND_ORGANIZATION_ASSIGNMENT ( #30, #69, ( #197 ) ) ;
#22 = AXIS2_PLACEMENT_3D ( 'NONE', #61, #187, #23 ) ;
#23 = DIRECTION ( 'NONE',  ( 0.0000000000000000000, 1.000000000000000000, 0.0000000000000000000 ) ) ;
#24 = CARTESIAN_POINT ( 'NONE',  ( 1.316288464743861212E-13, 1.499999999999995559, 37.69999999999999574 ) ) ;
#25 = DIRECTION ( 'NONE',  ( -3.491481338843133355E-15, 1.224646799147353207E-16, -1.000000000000000000 ) ) ;
#26 = DIRECTION ( 'NONE',  ( 4.275831445896958607E-31, 1.000000000000000000, 1.224646799147353207E-16 ) ) ;
#27 = CC_DESIGN_APPROVAL ( #218, ( #200 ) ) ;
#28 = APPLICATION_PROTOCOL_DEFINITION ( 'international standard', 'config_control_design', 1994, #214 ) ;
#29 = CALENDAR_DATE ( 2021, 24, 11 ) ;
#30 = PERSON_AND_ORGANIZATION ( #33, #120 ) ;
#31 = PERSON_AND_ORGANIZATION_ROLE ( 'design_supplier' ) ;
#32 = EDGE_LOOP ( 'NONE', ( #141 ) ) ;
#33 = PERSON ( 'UNSPECIFIED', 'UNSPECIFIED', 'UNSPECIFIED', ('UNSPECIFIED'), ('UNSPECIFIED'), ('UNSPECIFIED') ) ;
#34 = MANIFOLD_SOLID_BREP ( 'Corps-Déplacer/Copier1[1]', #108 ) ;
#35 = APPLICATION_CONTEXT ( 'configuration controlled 3d designs of mechanical parts and assemblies' ) ;
#36 = DIRECTION ( 'NONE',  ( -3.491481338843133355E-15, 1.224646799147353207E-16, -1.000000000000000000 ) ) ;
#37 = ORIENTED_EDGE ( 'NONE', *, *, #217, .T. ) ;
#38 =( GEOMETRIC_REPRESENTATION_CONTEXT ( 3 ) GLOBAL_UNCERTAINTY_ASSIGNED_CONTEXT ( ( #145 ) ) GLOBAL_UNIT_ASSIGNED_CONTEXT ( ( #171, #135, #156 ) ) REPRESENTATION_CONTEXT ( 'NONE', 'WORKASPACE' ) );
#39 = DIRECTION ( 'NONE',  ( -3.491481338843133355E-15, 1.224646799147353207E-16, -1.000000000000000000 ) ) ;
#40 = CARTESIAN_POINT ( 'NONE',  ( 1.303038575024124381E-14, -4.570444075744541938E-16, 3.732050807568895401 ) ) ;
#41 = DIRECTION ( 'NONE',  ( -4.275831445896958607E-31, -1.000000000000000000, -1.224646799147353207E-16 ) ) ;
#42 = AXIS2_PLACEMENT_3D ( 'NONE', #60, #170, #126 ) ;
#43 = CIRCLE ( 'NONE', #243, 1.500000000000000000 ) ;
#44 = DATE_AND_TIME ( #67, #184 ) ;
#45 = ADVANCED_FACE ( 'NONE', ( #147, #183 ), #8, .T. ) ;
#46 = FACE_OUTER_BOUND ( 'NONE', #224, .T. ) ;
#47 = DIRECTION ( 'NONE',  ( 1.000000000000000000, 0.0000000000000000000, 0.0000000000000000000 ) ) ;
#48 = ADVANCED_BREP_SHAPE_REPRESENTATION ( '956867', ( #34, #196, #16 ), #38 ) ;
#49 = EDGE_CURVE ( 'NONE', #212, #212, #15, .T. ) ;
#50 = PRODUCT_DEFINITION_SHAPE ( 'NONE', 'NONE',  #103 ) ;
#51 = DATE_AND_TIME ( #215, #205 ) ;
#52 = ORIENTED_EDGE ( 'NONE', *, *, #150, .F. ) ;
#53 = APPROVAL_PERSON_ORGANIZATION ( #99, #134, #84 ) ;
#54 = ORIENTED_EDGE ( 'NONE', *, *, #179, .T. ) ;
#55 = EDGE_LOOP ( 'NONE', ( #59 ) ) ;
#56 = EDGE_CURVE ( 'NONE', #85, #85, #176, .T. ) ;
#57 = DIRECTION ( 'NONE',  ( -3.491481338843133355E-15, 1.224646799147353207E-16, -1.000000000000000000 ) ) ;
#58 = FACE_OUTER_BOUND ( 'NONE', #105, .T. ) ;
#59 = ORIENTED_EDGE ( 'NONE', *, *, #49, .T. ) ;
#60 = CARTESIAN_POINT ( 'NONE',  ( 1.303038575024124381E-14, -4.570444075744541938E-16, 3.732050807568895401 ) ) ;
#61 = CARTESIAN_POINT ( 'NONE',  ( 1.326762908760390423E-13, -4.653657836759941941E-15, 38.00000000000000000 ) ) ;
#62 = APPROVAL_DATE_TIME ( #44, #134 ) ;
#63 = AXIS2_PLACEMENT_3D ( 'NONE', #151, #202, #2 ) ;
#64 = PERSON_AND_ORGANIZATION_ROLE ( 'design_owner' ) ;
#65 = CC_DESIGN_PERSON_AND_ORGANIZATION_ASSIGNMENT ( #213, #118, ( #103 ) ) ;
#66 = VERTEX_POINT ( 'NONE', #132 ) ;
#67 = CALENDAR_DATE ( 2021, 24, 11 ) ;
#68 = AXIS2_PLACEMENT_3D ( 'NONE', #124, #203, #168 ) ;
#69 = PERSON_AND_ORGANIZATION_ROLE ( 'classification_officer' ) ;
#70 = PERSON_AND_ORGANIZATION ( #33, #120 ) ;
#71 = DATE_TIME_ROLE ( 'creation_date' ) ;
#72 = ADVANCED_FACE ( 'NONE', ( #1, #153 ), #130, .T. ) ;
#73 = EDGE_LOOP ( 'NONE', ( #12 ) ) ;
#74 = DIRECTION ( 'NONE',  ( -3.491481338843133355E-15, 1.224646799147353207E-16, -1.000000000000000000 ) ) ;
#75 = FACE_OUTER_BOUND ( 'NONE', #195, .T. ) ;
#76 = DIRECTION ( 'NONE',  ( -3.851859888774473458E-31, -1.000000000000000000, -1.084202172485504927E-16 ) ) ;
#77 = DIRECTION ( 'NONE',  ( 3.851859888774473458E-31, 1.000000000000000000, 1.084202172485504927E-16 ) ) ;
#78 = AXIS2_PLACEMENT_3D ( 'NONE', #188, #25, #26 ) ;
#79 = FACE_BOUND ( 'NONE', #55, .T. ) ;
#80 = CARTESIAN_POINT ( 'NONE',  ( 1.326762908760390423E-13, 1.199999999999995515, 38.00000000000000000 ) ) ;
#81 = ADVANCED_FACE ( 'NONE', ( #75 ), #125, .F. ) ;
#82 = AXIS2_PLACEMENT_3D ( 'NONE', #181, #18, #14 ) ;
#83 = CC_DESIGN_SECURITY_CLASSIFICATION ( #197, ( #200 ) ) ;
#84 = APPROVAL_ROLE ( '' ) ;
#85 = VERTEX_POINT ( 'NONE', #211 ) ;
#86 = CALENDAR_DATE ( 2021, 24, 11 ) ;
#87 = APPROVAL_ROLE ( '' ) ;
#88 = COORDINATED_UNIVERSAL_TIME_OFFSET ( 1, 0, .AHEAD. ) ;
#89 = CC_DESIGN_PERSON_AND_ORGANIZATION_ASSIGNMENT ( #70, #119, ( #200 ) ) ;
#90 = ORIENTED_EDGE ( 'NONE', *, *, #49, .F. ) ;
#91 = ORIENTED_EDGE ( 'NONE', *, *, #107, .F. ) ;
#92 = CARTESIAN_POINT ( 'NONE',  ( 1.571166602479425787E-15, -5.510910596163145639E-17, 0.4500000000000045630 ) ) ;
#93 = ADVANCED_FACE ( 'NONE', ( #111, #123 ), #20, .T. ) ;
#94 = DIRECTION ( 'NONE',  ( -3.491481338843133355E-15, 1.224646799147353207E-16, -1.000000000000000000 ) ) ;
#95 = DIRECTION ( 'NONE',  ( 0.0000000000000000000, 1.000000000000000000, 0.0000000000000000000 ) ) ;
#96 = FACE_OUTER_BOUND ( 'NONE', #146, .T. ) ;
#97 = CC_DESIGN_PERSON_AND_ORGANIZATION_ASSIGNMENT ( #237, #31, ( #200 ) ) ;
#98 = FACE_OUTER_BOUND ( 'NONE', #201, .T. ) ;
#99 = PERSON_AND_ORGANIZATION ( #33, #120 ) ;
#100 = DATE_AND_TIME ( #29, #131 ) ;
#101 = APPROVAL_STATUS ( 'not_yet_approved' ) ;
#102 = ORIENTED_EDGE ( 'NONE', *, *, #217, .F. ) ;
#103 = PRODUCT_DEFINITION ( 'UNKNOWN', '', #200, #164 ) ;
#104 = DATE_TIME_ROLE ( 'classification_date' ) ;
#105 = EDGE_LOOP ( 'NONE', ( #180 ) ) ;
#106 = CARTESIAN_POINT ( 'NONE',  ( 6.982962677686266711E-15, -2.449293598294706414E-16, 2.000000000000000000 ) ) ;
#107 = EDGE_CURVE ( 'NONE', #129, #129, #182, .T. ) ;
#108 = CLOSED_SHELL ( 'NONE', ( #137, #45, #93, #230, #236 ) ) ;
#109 = FACE_OUTER_BOUND ( 'NONE', #73, .T. ) ;
#110 = DIRECTION ( 'NONE',  ( 3.491481338843133355E-15, -1.224646799147353207E-16, 1.000000000000000000 ) ) ;
#111 = FACE_OUTER_BOUND ( 'NONE', #239, .T. ) ;
#112 = ADVANCED_FACE ( 'NONE', ( #58 ), #204, .T. ) ;
#113 = CIRCLE ( 'NONE', #234, 0.5000000000000002220 ) ;
#114 = DIRECTION ( 'NONE',  ( -3.491481338843133355E-15, 1.224646799147353207E-16, -1.000000000000000000 ) ) ;
#115 = CIRCLE ( 'NONE', #148, 0.5000000000000002220 ) ;
#116 = CARTESIAN_POINT ( 'NONE',  ( 1.303038575024124381E-14, 1.499999999999995559, 3.732050807568895401 ) ) ;
#117 = PRODUCT ( '956867', '956867', '', ( #9 ) ) ;
#118 = PERSON_AND_ORGANIZATION_ROLE ( 'creator' ) ;
#119 = PERSON_AND_ORGANIZATION_ROLE ( 'creator' ) ;
#120 = ORGANIZATION ( 'UNSPECIFIED', 'UNSPECIFIED', '' ) ;
#121 = EDGE_LOOP ( 'NONE', ( #162 ) ) ;
#122 = EDGE_LOOP ( 'NONE', ( #52 ) ) ;
#123 = FACE_OUTER_BOUND ( 'NONE', #121, .T. ) ;
#124 = CARTESIAN_POINT ( 'NONE',  ( 6.982962677686266711E-15, 3.749399456654641967E-33, 2.000000000000000000 ) ) ;
#125 = PLANE ( 'NONE',  #242 ) ;
#126 = DIRECTION ( 'NONE',  ( 0.0000000000000000000, -1.000000000000000000, 0.0000000000000000000 ) ) ;
#127 = PRODUCT_RELATED_PRODUCT_CATEGORY ( 'detail', '', ( #117 ) ) ;
#128 = DIRECTION ( 'NONE',  ( 0.0000000000000000000, 1.000000000000000000, 0.0000000000000000000 ) ) ;
#129 = VERTEX_POINT ( 'NONE', #154 ) ;
#130 = CONICAL_SURFACE ( 'NONE', #165, 0.4999999999999997780, 0.7853981633974430610 ) ;
#131 = LOCAL_TIME ( 15, 55, 45.00000000000000000, #193 ) ;
#132 = CARTESIAN_POINT ( 'NONE',  ( 6.982962677686266711E-15, 0.5000000000000000000, 2.000000000000000000 ) ) ;
#133 = CYLINDRICAL_SURFACE ( 'NONE', #78, 0.5000000000000000000 ) ;
#134 = APPROVAL ( #6, 'UNSPECIFIED' ) ;
#135 =( NAMED_UNIT ( * ) PLANE_ANGLE_UNIT ( ) SI_UNIT ( $, .RADIAN. ) );
#136 = CARTESIAN_POINT ( 'NONE',  ( 1.326762908760390423E-13, 8.998558695971078593E-33, 38.00000000000000000 ) ) ;
#137 = ADVANCED_FACE ( 'NONE', ( #109 ), #207, .F. ) ;
#138 = DATE_AND_TIME ( #194, #173 ) ;
#139 = EDGE_LOOP ( 'NONE', ( #241 ) ) ;
#140 = APPROVAL_ROLE ( '' ) ;
#141 = ORIENTED_EDGE ( 'NONE', *, *, #56, .F. ) ;
#142 = SECURITY_CLASSIFICATION_LEVEL ( 'unclassified' ) ;
#143 = AXIS2_PLACEMENT_3D ( 'NONE', #40, #36, #95 ) ;
#144 = CLOSED_SHELL ( 'NONE', ( #81, #72, #238, #112 ) ) ;
#145 = UNCERTAINTY_MEASURE_WITH_UNIT (LENGTH_MEASURE( 1.000000000000000082E-05 ), #171, 'distance_accuracy_value', 'NONE');
#146 = EDGE_LOOP ( 'NONE', ( #90 ) ) ;
#147 = FACE_BOUND ( 'NONE', #122, .T. ) ;
#148 = AXIS2_PLACEMENT_3D ( 'NONE', #19, #94, #169 ) ;
#149 = CARTESIAN_POINT ( 'NONE',  ( 1.326762908760390423E-13, -4.653657836759941941E-15, 38.00000000000000000 ) ) ;
#150 = EDGE_CURVE ( 'NONE', #66, #66, #113, .T. ) ;
#151 = CARTESIAN_POINT ( 'NONE',  ( 6.982962677686266711E-15, 3.749399456654641967E-33, 2.000000000000000000 ) ) ;
#152 = DIRECTION ( 'NONE',  ( -3.491481338843133355E-15, 1.224646799147353207E-16, -1.000000000000000000 ) ) ;
#153 = FACE_OUTER_BOUND ( 'NONE', #139, .T. ) ;
#154 = CARTESIAN_POINT ( 'NONE',  ( 1.571166602479425984E-15, 0.4999999999999996669, 0.4500000000000046185 ) ) ;
#155 = AXIS2_PLACEMENT_3D ( 'NONE', #149, #74, #128 ) ;
#156 =( NAMED_UNIT ( * ) SI_UNIT ( $, .STERADIAN. ) SOLID_ANGLE_UNIT ( ) );
#157 = APPLICATION_PROTOCOL_DEFINITION ( 'international standard', 'config_control_design', 1994, #35 ) ;
#158 = CONICAL_SURFACE ( 'NONE', #22, 1.200000000000000178, 0.7853981633974453924 ) ;
#159 = DATE_AND_TIME ( #86, #225 ) ;
#160 = COORDINATED_UNIVERSAL_TIME_OFFSET ( 1, 0, .AHEAD. ) ;
#161 = ORIENTED_EDGE ( 'NONE', *, *, #56, .T. ) ;
#162 = ORIENTED_EDGE ( 'NONE', *, *, #189, .T. ) ;
#163 = AXIS2_PLACEMENT_3D ( 'NONE', #136, #114, #174 ) ;
#164 = DESIGN_CONTEXT ( 'detailed design', #35, 'design' ) ;
#165 = AXIS2_PLACEMENT_3D ( 'NONE', #206, #110, #76 ) ;
#166 = DIRECTION ( 'NONE',  ( 4.275831445896960358E-31, 1.000000000000000000, 1.224646799147352714E-16 ) ) ;
#167 = CC_DESIGN_APPROVAL ( #175, ( #197 ) ) ;
#168 = DIRECTION ( 'NONE',  ( -4.275831445896958607E-31, -1.000000000000000000, -1.224646799147353207E-16 ) ) ;
#169 = DIRECTION ( 'NONE',  ( 0.0000000000000000000, 1.000000000000000000, 0.0000000000000000000 ) ) ;
#170 = DIRECTION ( 'NONE',  ( 3.491481338843133355E-15, -1.224646799147353207E-16, 1.000000000000000000 ) ) ;
#171 =( LENGTH_UNIT ( ) NAMED_UNIT ( * ) SI_UNIT ( .MILLI., .METRE. ) );
#172 = CARTESIAN_POINT ( 'NONE',  ( 6.982962677686266711E-15, 0.5000000000000000000, 2.000000000000000000 ) ) ;
#173 = LOCAL_TIME ( 15, 55, 45.00000000000000000, #160 ) ;
#174 = DIRECTION ( 'NONE',  ( 4.275831445896958607E-31, 1.000000000000000000, 1.224646799147353207E-16 ) ) ;
#175 = APPROVAL ( #10, 'UNSPECIFIED' ) ;
#176 = CIRCLE ( 'NONE', #209, 0.04999999999999999584 ) ;
#177 = CC_DESIGN_APPROVAL ( #134, ( #103 ) ) ;
#178 = PERSON_AND_ORGANIZATION ( #33, #120 ) ;
#179 = EDGE_CURVE ( 'NONE', #7, #7, #115, .T. ) ;
#180 = ORIENTED_EDGE ( 'NONE', *, *, #179, .F. ) ;
#181 = CARTESIAN_POINT ( 'NONE',  ( 0.0000000000000000000, 0.0000000000000000000, 0.0000000000000000000 ) ) ;
#182 = CIRCLE ( 'NONE', #219, 0.4999999999999997780 ) ;
#183 = FACE_OUTER_BOUND ( 'NONE', #199, .T. ) ;
#184 = LOCAL_TIME ( 15, 55, 45.00000000000000000, #233 ) ;
#185 = DIRECTION ( 'NONE',  ( 0.0000000000000000000, 1.000000000000000000, 0.0000000000000000000 ) ) ;
#186 = CARTESIAN_POINT ( 'NONE',  ( 1.560648264939365986E-31, -5.474017234433037945E-33, 4.469874283952125554E-17 ) ) ;
#187 = DIRECTION ( 'NONE',  ( -3.491481338843133355E-15, 1.224646799147353207E-16, -1.000000000000000000 ) ) ;
#188 = CARTESIAN_POINT ( 'NONE',  ( 0.0000000000000000000, 0.0000000000000000000, 0.0000000000000000000 ) ) ;
#189 = EDGE_CURVE ( 'NONE', #210, #210, #43, .T. ) ;
#190 = DIRECTION ( 'NONE',  ( 0.0000000000000000000, 0.0000000000000000000, 1.000000000000000000 ) ) ;
#191 = PLANE ( 'NONE',  #163 ) ;
#192 = APPROVAL_PERSON_ORGANIZATION ( #178, #218, #140 ) ;
#193 = COORDINATED_UNIVERSAL_TIME_OFFSET ( 1, 0, .AHEAD. ) ;
#194 = CALENDAR_DATE ( 2021, 24, 11 ) ;
#195 = EDGE_LOOP ( 'NONE', ( #161 ) ) ;
#196 = MANIFOLD_SOLID_BREP ( 'Corps-Déplacer/Copier1[2]', #144 ) ;
#197 = SECURITY_CLASSIFICATION ( '', '', #142 ) ;
#198 = APPROVAL_DATE_TIME ( #138, #218 ) ;
#199 = EDGE_LOOP ( 'NONE', ( #37 ) ) ;
#200 = PRODUCT_DEFINITION_FORMATION_WITH_SPECIFIED_SOURCE ( 'ANY', '', #117, .NOT_KNOWN. ) ;
#201 = EDGE_LOOP ( 'NONE', ( #91 ) ) ;
#202 = DIRECTION ( 'NONE',  ( 3.491481338843133355E-15, -1.224646799147353207E-16, 1.000000000000000000 ) ) ;
#203 = DIRECTION ( 'NONE',  ( 3.491481338843133355E-15, -1.224646799147353207E-16, 1.000000000000000000 ) ) ;
#204 = PLANE ( 'NONE',  #68 ) ;
#205 = LOCAL_TIME ( 15, 55, 45.00000000000000000, #88 ) ;
#206 = CARTESIAN_POINT ( 'NONE',  ( 1.571166602479425787E-15, -5.510910596163145639E-17, 0.4500000000000045630 ) ) ;
#207 = PLANE ( 'NONE',  #63 ) ;
#208 = CARTESIAN_POINT ( 'NONE',  ( 0.0000000000000000000, 0.0000000000000000000, 0.0000000000000000000 ) ) ;
#209 = AXIS2_PLACEMENT_3D ( 'NONE', #186, #57, #166 ) ;
#210 = VERTEX_POINT ( 'NONE', #24 ) ;
#211 = CARTESIAN_POINT ( 'NONE',  ( 1.774439837234214004E-31, 0.04999999999999999584, 5.082197683525802034E-17 ) ) ;
#212 = VERTEX_POINT ( 'NONE', #80 ) ;
#213 = PERSON_AND_ORGANIZATION ( #33, #120 ) ;
#214 = APPLICATION_CONTEXT ( 'configuration controlled 3d designs of mechanical parts and assemblies' ) ;
#215 = CALENDAR_DATE ( 2021, 24, 11 ) ;
#216 = COORDINATED_UNIVERSAL_TIME_OFFSET ( 1, 0, .AHEAD. ) ;
#217 = EDGE_CURVE ( 'NONE', #231, #231, #220, .T. ) ;
#218 = APPROVAL ( #101, 'UNSPECIFIED' ) ;
#219 = AXIS2_PLACEMENT_3D ( 'NONE', #92, #227, #77 ) ;
#220 = CIRCLE ( 'NONE', #143, 1.499999999999996003 ) ;
#221 = SHAPE_DEFINITION_REPRESENTATION ( #50, #48 ) ;
#222 = ORIENTED_EDGE ( 'NONE', *, *, #189, .F. ) ;
#223 = CC_DESIGN_DATE_AND_TIME_ASSIGNMENT ( #159, #104, ( #197 ) ) ;
#224 = EDGE_LOOP ( 'NONE', ( #54 ) ) ;
#225 = LOCAL_TIME ( 15, 55, 45.00000000000000000, #216 ) ;
#226 = DIRECTION ( 'NONE',  ( 3.491481338843133355E-15, -1.224646799147353207E-16, 1.000000000000000000 ) ) ;
#227 = DIRECTION ( 'NONE',  ( -3.491481338843133355E-15, 1.224646799147353207E-16, -1.000000000000000000 ) ) ;
#228 = CARTESIAN_POINT ( 'NONE',  ( 1.316288464743861212E-13, -4.616918432785521081E-15, 37.69999999999999574 ) ) ;
#229 = CARTESIAN_POINT ( 'NONE',  ( 7.803241324696829932E-32, -2.737008617216518972E-33, 2.234937141976062777E-17 ) ) ;
#230 = ADVANCED_FACE ( 'NONE', ( #4, #79 ), #158, .T. ) ;
#231 = VERTEX_POINT ( 'NONE', #116 ) ;
#232 = PERSON_AND_ORGANIZATION ( #33, #120 ) ;
#233 = COORDINATED_UNIVERSAL_TIME_OFFSET ( 1, 0, .AHEAD. ) ;
#234 = AXIS2_PLACEMENT_3D ( 'NONE', #106, #39, #185 ) ;
#235 = PERSON_AND_ORGANIZATION ( #33, #120 ) ;
#236 = ADVANCED_FACE ( 'NONE', ( #96 ), #191, .F. ) ;
#237 = PERSON_AND_ORGANIZATION ( #33, #120 ) ;
#238 = ADVANCED_FACE ( 'NONE', ( #98, #46 ), #133, .T. ) ;
#239 = EDGE_LOOP ( 'NONE', ( #102 ) ) ;
#240 = APPROVAL_DATE_TIME ( #51, #175 ) ;
#241 = ORIENTED_EDGE ( 'NONE', *, *, #107, .T. ) ;
#242 = AXIS2_PLACEMENT_3D ( 'NONE', #229, #226, #41 ) ;
#243 = AXIS2_PLACEMENT_3D ( 'NONE', #228, #152, #3 ) ;
ENDSEC;
END-ISO-10303-21;
