ISO-10303-21;
HEADER;
FILE_DESCRIPTION (( 'STEP AP203' ),
    '1' );
FILE_NAME ('956866.step',
    '2023-02-16T09:47:37',
    ( '' ),
    ( '' ),
    'SwSTEP 2.0',
    'SolidWorks 2019',
    '' );
FILE_SCHEMA (( 'CONFIG_CONTROL_DESIGN' ));
ENDSEC;

DATA;
#1 = ORIENTED_EDGE ( 'NONE', *, *, #21, .T. ) ;
#2 = ORGANIZATION ( 'UNSPECIFIED', 'UNSPECIFIED', '' ) ;
#3 = CC_DESIGN_PERSON_AND_ORGANIZATION_ASSIGNMENT ( #15, #41, ( #139 ) ) ;
#4 = DIRECTION ( 'NONE',  ( -3.491481338843133355E-15, 1.224646799147353207E-16, -1.000000000000000000 ) ) ;
#5 = EDGE_LOOP ( 'NONE', ( #212 ) ) ;
#6 = FACE_OUTER_BOUND ( 'NONE', #7, .T. ) ;
#7 = EDGE_LOOP ( 'NONE', ( #162 ) ) ;
#8 = AXIS2_PLACEMENT_3D ( 'NONE', #215, #82, #192 ) ;
#9 = DIRECTION ( 'NONE',  ( -3.491481338843133355E-15, 1.224646799147353207E-16, -1.000000000000000000 ) ) ;
#10 = DIRECTION ( 'NONE',  ( 4.275831445896959482E-31, 1.000000000000000000, 1.224646799147353700E-16 ) ) ;
#11 = CONICAL_SURFACE ( 'NONE', #43, 1.499999999999996003, 0.5235987755982923764 ) ;
#12 = DIRECTION ( 'NONE',  ( -3.491481338843133355E-15, 1.224646799147353207E-16, -1.000000000000000000 ) ) ;
#13 = FACE_OUTER_BOUND ( 'NONE', #64, .T. ) ;
#14 = CARTESIAN_POINT ( 'NONE',  ( 1.326762908760390423E-13, 8.998558695971078593E-33, 38.00000000000000000 ) ) ;
#15 = PERSON_AND_ORGANIZATION ( #175, #2 ) ;
#16 = CLOSED_SHELL ( 'NONE', ( #91, #32, #107, #58 ) ) ;
#17 = UNCERTAINTY_MEASURE_WITH_UNIT (LENGTH_MEASURE( 1.000000000000000082E-05 ), #128, 'distance_accuracy_value', 'NONE');
#18 = CC_DESIGN_PERSON_AND_ORGANIZATION_ASSIGNMENT ( #225, #154, ( #239 ) ) ;
#19 = ORIENTED_EDGE ( 'NONE', *, *, #223, .F. ) ;
#20 = AXIS2_PLACEMENT_3D ( 'NONE', #147, #12, #184 ) ;
#21 = EDGE_CURVE ( 'NONE', #86, #86, #148, .T. ) ;
#22 = FACE_BOUND ( 'NONE', #42, .T. ) ;
#23 = CC_DESIGN_APPROVAL ( #115, ( #239 ) ) ;
#24 = CARTESIAN_POINT ( 'NONE',  ( 1.047444401652940007E-14, -3.673940397442059868E-16, 3.000000000000000000 ) ) ;
#25 = DIRECTION ( 'NONE',  ( 0.000000000000000000, 1.000000000000000000, 0.000000000000000000 ) ) ;
#26 = APPROVAL_PERSON_ORGANIZATION ( #133, #90, #57 ) ;
#27 = EDGE_LOOP ( 'NONE', ( #46 ) ) ;
#28 = CIRCLE ( 'NONE', #68, 0.1000000000000000056 ) ;
#29 = CARTESIAN_POINT ( 'NONE',  ( 1.316288464743861212E-13, -4.616918432785521081E-15, 37.69999999999999574 ) ) ;
#30 = AXIS2_PLACEMENT_3D ( 'NONE', #24, #122, #120 ) ;
#31 = DIRECTION ( 'NONE',  ( -3.491481338843133355E-15, 1.224646799147353207E-16, -1.000000000000000000 ) ) ;
#32 = ADVANCED_FACE ( 'NONE', ( #22, #6 ), #101, .T. ) ;
#33 = CARTESIAN_POINT ( 'NONE',  ( 1.326762908760390423E-13, 1.199999999999995515, 38.00000000000000000 ) ) ;
#34 = ADVANCED_BREP_SHAPE_REPRESENTATION ( '956866', ( #137, #141, #203 ), #243 ) ;
#35 = VERTEX_POINT ( 'NONE', #240 ) ;
#36 = CALENDAR_DATE ( 2023, 16, 2 ) ;
#37 = LOCAL_TIME ( 10, 47, 37.00000000000000000, #56 ) ;
#38 = PERSON_AND_ORGANIZATION_ROLE ( 'classification_officer' ) ;
#39 = CC_DESIGN_PERSON_AND_ORGANIZATION_ASSIGNMENT ( #55, #205, ( #239 ) ) ;
#40 = DATE_TIME_ROLE ( 'creation_date' ) ;
#41 = PERSON_AND_ORGANIZATION_ROLE ( 'creator' ) ;
#42 = EDGE_LOOP ( 'NONE', ( #19 ) ) ;
#43 = AXIS2_PLACEMENT_3D ( 'NONE', #67, #181, #144 ) ;
#44 = CARTESIAN_POINT ( 'NONE',  ( 1.047444401652940007E-14, -3.673940397442059868E-16, 3.000000000000000000 ) ) ;
#45 = EDGE_LOOP ( 'NONE', ( #211 ) ) ;
#46 = ORIENTED_EDGE ( 'NONE', *, *, #149, .T. ) ;
#47 = EDGE_LOOP ( 'NONE', ( #116 ) ) ;
#48 = DIRECTION ( 'NONE',  ( -4.275831445896958607E-31, -1.000000000000000000, -1.224646799147353207E-16 ) ) ;
#49 = AXIS2_PLACEMENT_3D ( 'NONE', #140, #176, #118 ) ;
#50 = APPROVAL ( #93, 'UNSPECIFIED' ) ;
#51 = DIRECTION ( 'NONE',  ( 4.275831445896959482E-31, 1.000000000000000000, 1.224646799147353207E-16 ) ) ;
#52 = CARTESIAN_POINT ( 'NONE',  ( 1.349815555280687599E-14, 1.499999999999995559, 3.866025403784444148 ) ) ;
#53 = CARTESIAN_POINT ( 'NONE',  ( 1.316288464743861212E-13, 1.499999999999995559, 37.69999999999999574 ) ) ;
#54 =( NAMED_UNIT ( * ) SI_UNIT ( $, .STERADIAN. ) SOLID_ANGLE_UNIT ( ) );
#55 = PERSON_AND_ORGANIZATION ( #175, #2 ) ;
#56 = COORDINATED_UNIVERSAL_TIME_OFFSET ( 1, 0, .AHEAD. ) ;
#57 = APPROVAL_ROLE ( '' ) ;
#58 = ADVANCED_FACE ( 'NONE', ( #161 ), #99, .T. ) ;
#59 = APPROVAL_DATE_TIME ( #135, #90 ) ;
#60 = AXIS2_PLACEMENT_3D ( 'NONE', #235, #143, #80 ) ;
#61 = EDGE_LOOP ( 'NONE', ( #123 ) ) ;
#62 = CC_DESIGN_DATE_AND_TIME_ASSIGNMENT ( #76, #40, ( #139 ) ) ;
#63 = FACE_OUTER_BOUND ( 'NONE', #61, .T. ) ;
#64 = EDGE_LOOP ( 'NONE', ( #208 ) ) ;
#65 = ORIENTED_EDGE ( 'NONE', *, *, #66, .T. ) ;
#66 = EDGE_CURVE ( 'NONE', #195, #195, #110, .T. ) ;
#67 = CARTESIAN_POINT ( 'NONE',  ( 1.349815555280687599E-14, -4.734515636166973439E-16, 3.866025403784444148 ) ) ;
#68 = AXIS2_PLACEMENT_3D ( 'NONE', #219, #216, #10 ) ;
#69 = LOCAL_TIME ( 10, 47, 37.00000000000000000, #151 ) ;
#70 = PLANE ( 'NONE',  #126 ) ;
#71 = DIRECTION ( 'NONE',  ( 0.000000000000000000, 1.000000000000000000, 0.000000000000000000 ) ) ;
#72 =( NAMED_UNIT ( * ) PLANE_ANGLE_UNIT ( ) SI_UNIT ( $, .RADIAN. ) );
#73 = DATE_AND_TIME ( #36, #37 ) ;
#74 = SECURITY_CLASSIFICATION_LEVEL ( 'unclassified' ) ;
#75 = EDGE_CURVE ( 'NONE', #199, #199, #217, .T. ) ;
#76 = DATE_AND_TIME ( #134, #69 ) ;
#77 = DATE_TIME_ROLE ( 'classification_date' ) ;
#78 = DIRECTION ( 'NONE',  ( 0.000000000000000000, 0.000000000000000000, 1.000000000000000000 ) ) ;
#79 = CC_DESIGN_SECURITY_CLASSIFICATION ( #209, ( #239 ) ) ;
#80 = DIRECTION ( 'NONE',  ( -4.275831445896958607E-31, -1.000000000000000000, -1.224646799147353207E-16 ) ) ;
#81 = CLOSED_SHELL ( 'NONE', ( #232, #173, #130, #117, #157 ) ) ;
#82 = DIRECTION ( 'NONE',  ( -3.491481338843133355E-15, 1.224646799147353207E-16, -1.000000000000000000 ) ) ;
#83 = FACE_OUTER_BOUND ( 'NONE', #191, .T. ) ;
#84 = EDGE_CURVE ( 'NONE', #87, #87, #169, .T. ) ;
#85 = VERTEX_POINT ( 'NONE', #33 ) ;
#86 = VERTEX_POINT ( 'NONE', #105 ) ;
#87 = VERTEX_POINT ( 'NONE', #124 ) ;
#88 = CYLINDRICAL_SURFACE ( 'NONE', #198, 1.499999999999997780 ) ;
#89 = CARTESIAN_POINT ( 'NONE',  ( 1.326762908760390423E-13, -4.653657836759941941E-15, 38.00000000000000000 ) ) ;
#90 = APPROVAL ( #189, 'UNSPECIFIED' ) ;
#91 = ADVANCED_FACE ( 'NONE', ( #63 ), #231, .F. ) ;
#92 = CIRCLE ( 'NONE', #233, 1.500000000000000000 ) ;
#93 = APPROVAL_STATUS ( 'not_yet_approved' ) ;
#94 = PERSON_AND_ORGANIZATION_ROLE ( 'design_owner' ) ;
#95 = DIRECTION ( 'NONE',  ( 0.000000000000000000, 1.000000000000000000, 0.000000000000000000 ) ) ;
#96 = APPROVAL_PERSON_ORGANIZATION ( #188, #50, #187 ) ;
#97 = DIRECTION ( 'NONE',  ( -3.491481338843133355E-15, 1.224646799147353207E-16, -1.000000000000000000 ) ) ;
#98 = CARTESIAN_POINT ( 'NONE',  ( 1.678944254088313339E-31, -5.888943709483968468E-33, 4.808687462853845073E-17 ) ) ;
#99 = PLANE ( 'NONE',  #60 ) ;
#100 = CARTESIAN_POINT ( 'NONE',  ( 1.349815555280687599E-14, -4.734515636166973439E-16, 3.866025403784444148 ) ) ;
#101 = CONICAL_SURFACE ( 'NONE', #49, 0.9999999999999997780, 0.7853981633974428389 ) ;
#102 = CARTESIAN_POINT ( 'NONE',  ( 1.047444401652940007E-14, 7.498798913309282565E-33, 3.000000000000000000 ) ) ;
#103 = AXIS2_PLACEMENT_3D ( 'NONE', #221, #31, #71 ) ;
#104 = FACE_OUTER_BOUND ( 'NONE', #190, .T. ) ;
#105 = CARTESIAN_POINT ( 'NONE',  ( 1.047444401652940007E-14, 0.9999999999999997780, 3.000000000000000000 ) ) ;
#106 = MECHANICAL_CONTEXT ( 'NONE', #119, 'mechanical' ) ;
#107 = ADVANCED_FACE ( 'NONE', ( #83, #160 ), #183, .T. ) ;
#108 = DATE_AND_TIME ( #172, #220 ) ;
#109 = DESIGN_CONTEXT ( 'detailed design', #193, 'design' ) ;
#110 = CIRCLE ( 'NONE', #207, 1.499999999999996003 ) ;
#111 = CALENDAR_DATE ( 2023, 16, 2 ) ;
#112 = PRODUCT_RELATED_PRODUCT_CATEGORY ( 'detail', '', ( #210 ) ) ;
#113 = CARTESIAN_POINT ( 'NONE',  ( 0.000000000000000000, 0.000000000000000000, 0.000000000000000000 ) ) ;
#114 = CALENDAR_DATE ( 2023, 16, 2 ) ;
#115 = APPROVAL ( #170, 'UNSPECIFIED' ) ;
#116 = ORIENTED_EDGE ( 'NONE', *, *, #84, .T. ) ;
#117 = ADVANCED_FACE ( 'NONE', ( #13, #127 ), #237, .T. ) ;
#118 = DIRECTION ( 'NONE',  ( -3.851859888774472582E-31, -1.000000000000000000, -1.084202172485504681E-16 ) ) ;
#119 = APPLICATION_CONTEXT ( 'configuration controlled 3d designs of mechanical parts and assemblies' ) ;
#120 = DIRECTION ( 'NONE',  ( 0.000000000000000000, 1.000000000000000000, 0.000000000000000000 ) ) ;
#121 = CC_DESIGN_DATE_AND_TIME_ASSIGNMENT ( #108, #77, ( #209 ) ) ;
#122 = DIRECTION ( 'NONE',  ( -3.491481338843133355E-15, 1.224646799147353207E-16, -1.000000000000000000 ) ) ;
#123 = ORIENTED_EDGE ( 'NONE', *, *, #223, .T. ) ;
#124 = CARTESIAN_POINT ( 'NONE',  ( 1.047444401652940007E-14, 0.9999999999999997780, 3.000000000000000000 ) ) ;
#125 = DIRECTION ( 'NONE',  ( 3.491481338843133355E-15, -1.224646799147353207E-16, 1.000000000000000000 ) ) ;
#126 = AXIS2_PLACEMENT_3D ( 'NONE', #14, #197, #146 ) ;
#127 = FACE_BOUND ( 'NONE', #45, .T. ) ;
#128 =( LENGTH_UNIT ( ) NAMED_UNIT ( * ) SI_UNIT ( .MILLI., .METRE. ) );
#129 = PERSON_AND_ORGANIZATION ( #175, #2 ) ;
#130 = ADVANCED_FACE ( 'NONE', ( #104, #150 ), #88, .T. ) ;
#131 = COORDINATED_UNIVERSAL_TIME_OFFSET ( 1, 0, .AHEAD. ) ;
#132 = APPROVAL_PERSON_ORGANIZATION ( #206, #115, #153 ) ;
#133 = PERSON_AND_ORGANIZATION ( #175, #2 ) ;
#134 = CALENDAR_DATE ( 2023, 16, 2 ) ;
#135 = DATE_AND_TIME ( #111, #155 ) ;
#136 = SHAPE_DEFINITION_REPRESENTATION ( #159, #34 ) ;
#137 = MANIFOLD_SOLID_BREP ( 'Corps-Déplacer/Copier1[1]', #81 ) ;
#138 = EDGE_LOOP ( 'NONE', ( #1 ) ) ;
#139 = PRODUCT_DEFINITION ( 'UNKNOWN', '', #239, #109 ) ;
#140 = CARTESIAN_POINT ( 'NONE',  ( 3.142333204958853152E-15, -1.102182119232629498E-16, 0.9000000000000095701 ) ) ;
#141 = MANIFOLD_SOLID_BREP ( 'Corps-Déplacer/Copier1[2]', #16 ) ;
#142 = ORIENTED_EDGE ( 'NONE', *, *, #66, .F. ) ;
#143 = DIRECTION ( 'NONE',  ( 3.491481338843133355E-15, -1.224646799147353207E-16, 1.000000000000000000 ) ) ;
#144 = DIRECTION ( 'NONE',  ( 0.000000000000000000, -1.000000000000000000, 0.000000000000000000 ) ) ;
#145 = CC_DESIGN_APPROVAL ( #50, ( #139 ) ) ;
#146 = DIRECTION ( 'NONE',  ( 4.275831445896958607E-31, 1.000000000000000000, 1.224646799147353207E-16 ) ) ;
#147 = CARTESIAN_POINT ( 'NONE',  ( 0.000000000000000000, 0.000000000000000000, 0.000000000000000000 ) ) ;
#148 = CIRCLE ( 'NONE', #30, 1.000000000000000222 ) ;
#149 = EDGE_CURVE ( 'NONE', #164, #164, #92, .T. ) ;
#150 = FACE_OUTER_BOUND ( 'NONE', #27, .T. ) ;
#151 = COORDINATED_UNIVERSAL_TIME_OFFSET ( 1, 0, .AHEAD. ) ;
#152 = PERSON_AND_ORGANIZATION ( #175, #2 ) ;
#153 = APPROVAL_ROLE ( '' ) ;
#154 = PERSON_AND_ORGANIZATION_ROLE ( 'creator' ) ;
#155 = LOCAL_TIME ( 10, 47, 37.00000000000000000, #204 ) ;
#156 = AXIS2_PLACEMENT_3D ( 'NONE', #89, #238, #241 ) ;
#157 = ADVANCED_FACE ( 'NONE', ( #168 ), #70, .F. ) ;
#158 = ORIENTED_EDGE ( 'NONE', *, *, #21, .F. ) ;
#159 = PRODUCT_DEFINITION_SHAPE ( 'NONE', 'NONE',  #139 ) ;
#160 = FACE_OUTER_BOUND ( 'NONE', #47, .T. ) ;
#161 = FACE_OUTER_BOUND ( 'NONE', #234, .T. ) ;
#162 = ORIENTED_EDGE ( 'NONE', *, *, #75, .T. ) ;
#163 = FACE_BOUND ( 'NONE', #230, .T. ) ;
#164 = VERTEX_POINT ( 'NONE', #53 ) ;
#165 = LOCAL_TIME ( 10, 47, 37.00000000000000000, #242 ) ;
#166 = FACE_OUTER_BOUND ( 'NONE', #194, .T. ) ;
#167 = DIRECTION ( 'NONE',  ( 0.000000000000000000, 1.000000000000000000, 0.000000000000000000 ) ) ;
#168 = FACE_OUTER_BOUND ( 'NONE', #5, .T. ) ;
#169 = CIRCLE ( 'NONE', #196, 1.000000000000000222 ) ;
#170 = APPROVAL_STATUS ( 'not_yet_approved' ) ;
#171 = DATE_AND_TIME ( #114, #165 ) ;
#172 = CALENDAR_DATE ( 2023, 16, 2 ) ;
#173 = ADVANCED_FACE ( 'NONE', ( #163, #166 ), #11, .T. ) ;
#174 = DIRECTION ( 'NONE',  ( -4.275831445896958607E-31, -1.000000000000000000, -1.224646799147353207E-16 ) ) ;
#175 = PERSON ( 'UNSPECIFIED', 'UNSPECIFIED', 'UNSPECIFIED', ('UNSPECIFIED'), ('UNSPECIFIED'), ('UNSPECIFIED') ) ;
#176 = DIRECTION ( 'NONE',  ( 3.491481338843133355E-15, -1.224646799147353207E-16, 1.000000000000000000 ) ) ;
#177 = DIRECTION ( 'NONE',  ( 3.491481338843133355E-15, -1.224646799147353207E-16, 1.000000000000000000 ) ) ;
#178 = CC_DESIGN_PERSON_AND_ORGANIZATION_ASSIGNMENT ( #152, #38, ( #209 ) ) ;
#179 = FACE_OUTER_BOUND ( 'NONE', #138, .T. ) ;
#180 = CC_DESIGN_PERSON_AND_ORGANIZATION_ASSIGNMENT ( #129, #94, ( #210 ) ) ;
#181 = DIRECTION ( 'NONE',  ( 3.491481338843133355E-15, -1.224646799147353207E-16, 1.000000000000000000 ) ) ;
#182 = AXIS2_PLACEMENT_3D ( 'NONE', #102, #125, #48 ) ;
#183 = CYLINDRICAL_SURFACE ( 'NONE', #20, 1.000000000000000000 ) ;
#184 = DIRECTION ( 'NONE',  ( 4.275831445896958607E-31, 1.000000000000000000, 1.224646799147353207E-16 ) ) ;
#185 = CARTESIAN_POINT ( 'NONE',  ( 0.000000000000000000, 0.000000000000000000, 0.000000000000000000 ) ) ;
#186 = APPROVAL_DATE_TIME ( #73, #50 ) ;
#187 = APPROVAL_ROLE ( '' ) ;
#188 = PERSON_AND_ORGANIZATION ( #175, #2 ) ;
#189 = APPROVAL_STATUS ( 'not_yet_approved' ) ;
#190 = EDGE_LOOP ( 'NONE', ( #142 ) ) ;
#191 = EDGE_LOOP ( 'NONE', ( #213 ) ) ;
#192 = DIRECTION ( 'NONE',  ( 3.851859888774472582E-31, 1.000000000000000000, 1.084202172485504681E-16 ) ) ;
#193 = APPLICATION_CONTEXT ( 'configuration controlled 3d designs of mechanical parts and assemblies' ) ;
#194 = EDGE_LOOP ( 'NONE', ( #65 ) ) ;
#195 = VERTEX_POINT ( 'NONE', #52 ) ;
#196 = AXIS2_PLACEMENT_3D ( 'NONE', #44, #4, #95 ) ;
#197 = DIRECTION ( 'NONE',  ( -3.491481338843133355E-15, 1.224646799147353207E-16, -1.000000000000000000 ) ) ;
#198 = AXIS2_PLACEMENT_3D ( 'NONE', #185, #9, #51 ) ;
#199 = VERTEX_POINT ( 'NONE', #200 ) ;
#200 = CARTESIAN_POINT ( 'NONE',  ( 3.142333204958853546E-15, 0.9999999999999995559, 0.9000000000000095701 ) ) ;
#201 = DIRECTION ( 'NONE',  ( -3.491481338843133355E-15, 1.224646799147353207E-16, -1.000000000000000000 ) ) ;
#202 = APPLICATION_PROTOCOL_DEFINITION ( 'international standard', 'config_control_design', 1994, #193 ) ;
#203 = AXIS2_PLACEMENT_3D ( 'NONE', #113, #78, #227 ) ;
#204 = COORDINATED_UNIVERSAL_TIME_OFFSET ( 1, 0, .AHEAD. ) ;
#205 = PERSON_AND_ORGANIZATION_ROLE ( 'design_supplier' ) ;
#206 = PERSON_AND_ORGANIZATION ( #175, #2 ) ;
#207 = AXIS2_PLACEMENT_3D ( 'NONE', #100, #97, #25 ) ;
#208 = ORIENTED_EDGE ( 'NONE', *, *, #149, .F. ) ;
#209 = SECURITY_CLASSIFICATION ( '', '', #74 ) ;
#210 = PRODUCT ( '956866', '956866', '', ( #106 ) ) ;
#211 = ORIENTED_EDGE ( 'NONE', *, *, #214, .T. ) ;
#212 = ORIENTED_EDGE ( 'NONE', *, *, #214, .F. ) ;
#213 = ORIENTED_EDGE ( 'NONE', *, *, #75, .F. ) ;
#214 = EDGE_CURVE ( 'NONE', #85, #85, #228, .T. ) ;
#215 = CARTESIAN_POINT ( 'NONE',  ( 3.142333204958853152E-15, -1.102182119232629498E-16, 0.9000000000000095701 ) ) ;
#216 = DIRECTION ( 'NONE',  ( -3.491481338843133355E-15, 1.224646799147353207E-16, -1.000000000000000000 ) ) ;
#217 = CIRCLE ( 'NONE', #8, 0.9999999999999997780 ) ;
#218 = PLANE ( 'NONE',  #182 ) ;
#219 = CARTESIAN_POINT ( 'NONE',  ( 3.357888508176626677E-31, -1.177788741896793694E-32, 9.617374925707690147E-17 ) ) ;
#220 = LOCAL_TIME ( 10, 47, 37.00000000000000000, #131 ) ;
#221 = CARTESIAN_POINT ( 'NONE',  ( 1.326762908760390423E-13, -4.653657836759941941E-15, 38.00000000000000000 ) ) ;
#222 = APPROVAL_DATE_TIME ( #171, #115 ) ;
#223 = EDGE_CURVE ( 'NONE', #35, #35, #28, .T. ) ;
#224 = APPLICATION_PROTOCOL_DEFINITION ( 'international standard', 'config_control_design', 1994, #119 ) ;
#225 = PERSON_AND_ORGANIZATION ( #175, #2 ) ;
#226 = CC_DESIGN_APPROVAL ( #90, ( #209 ) ) ;
#227 = DIRECTION ( 'NONE',  ( 1.000000000000000000, 0.000000000000000000, 0.000000000000000000 ) ) ;
#228 = CIRCLE ( 'NONE', #156, 1.200000000000000178 ) ;
#229 = AXIS2_PLACEMENT_3D ( 'NONE', #98, #177, #174 ) ;
#230 = EDGE_LOOP ( 'NONE', ( #158 ) ) ;
#231 = PLANE ( 'NONE',  #229 ) ;
#232 = ADVANCED_FACE ( 'NONE', ( #179 ), #218, .F. ) ;
#233 = AXIS2_PLACEMENT_3D ( 'NONE', #29, #201, #167 ) ;
#234 = EDGE_LOOP ( 'NONE', ( #236 ) ) ;
#235 = CARTESIAN_POINT ( 'NONE',  ( 1.047444401652940007E-14, 7.498798913309282565E-33, 3.000000000000000000 ) ) ;
#236 = ORIENTED_EDGE ( 'NONE', *, *, #84, .F. ) ;
#237 = CONICAL_SURFACE ( 'NONE', #103, 1.200000000000000178, 0.7853981633974453924 ) ;
#238 = DIRECTION ( 'NONE',  ( -3.491481338843133355E-15, 1.224646799147353207E-16, -1.000000000000000000 ) ) ;
#239 = PRODUCT_DEFINITION_FORMATION_WITH_SPECIFIED_SOURCE ( 'ANY', '', #210, .NOT_KNOWN. ) ;
#240 = CARTESIAN_POINT ( 'NONE',  ( 3.785471652766322713E-31, 0.1000000000000000056, 1.084202172485504434E-16 ) ) ;
#241 = DIRECTION ( 'NONE',  ( 0.000000000000000000, 1.000000000000000000, 0.000000000000000000 ) ) ;
#242 = COORDINATED_UNIVERSAL_TIME_OFFSET ( 1, 0, .AHEAD. ) ;
#243 =( GEOMETRIC_REPRESENTATION_CONTEXT ( 3 ) GLOBAL_UNCERTAINTY_ASSIGNED_CONTEXT ( ( #17 ) ) GLOBAL_UNIT_ASSIGNED_CONTEXT ( ( #128, #72, #54 ) ) REPRESENTATION_CONTEXT ( 'NONE', 'WORKASPACE' ) );
ENDSEC;
END-ISO-10303-21;
