ISO-10303-21;
HEADER;
FILE_DESCRIPTION (( 'STEP AP203' ),
    '1' );
FILE_NAME ('956865.step',
    '2021-11-24T14:55:45',
    ( '' ),
    ( '' ),
    'SwSTEP 2.0',
    'SolidWorks 2019',
    '' );
FILE_SCHEMA (( 'CONFIG_CONTROL_DESIGN' ));
ENDSEC;

DATA;
#1 = CARTESIAN_POINT ( 'NONE',  ( 4.731839565957903391E-32, 0.1000000000000000749, 1.355252715606880543E-17 ) ) ;
#2 = PERSON_AND_ORGANIZATION ( #59, #22 ) ;
#3 =( NAMED_UNIT ( * ) PLANE_ANGLE_UNIT ( ) SI_UNIT ( $, .RADIAN. ) );
#4 = ORIENTED_EDGE ( 'NONE', *, *, #231, .F. ) ;
#5 = PLANE ( 'NONE',  #174 ) ;
#6 = PERSON_AND_ORGANIZATION_ROLE ( 'classification_officer' ) ;
#7 = ORIENTED_EDGE ( 'NONE', *, *, #95, .T. ) ;
#8 = ADVANCED_BREP_SHAPE_REPRESENTATION ( '956865', ( #205, #41, #40 ), #204 ) ;
#9 = APPLICATION_CONTEXT ( 'configuration controlled 3d designs of mechanical parts and assemblies' ) ;
#10 = ORIENTED_EDGE ( 'NONE', *, *, #127, .T. ) ;
#11 = APPROVAL ( #177, 'UNSPECIFIED' ) ;
#12 = DIRECTION ( 'NONE',  ( 0.0000000000000000000, 1.000000000000000000, 0.0000000000000000000 ) ) ;
#13 = ORIENTED_EDGE ( 'NONE', *, *, #224, .F. ) ;
#14 = FACE_OUTER_BOUND ( 'NONE', #46, .T. ) ;
#15 = CIRCLE ( 'NONE', #69, 1.000000000000000000 ) ;
#16 = DIRECTION ( 'NONE',  ( 1.000000000000000000, 0.0000000000000000000, 0.0000000000000000000 ) ) ;
#17 = CARTESIAN_POINT ( 'NONE',  ( 1.047444401652940007E-14, 7.498798913309281197E-33, 3.000000000000000000 ) ) ;
#18 = CIRCLE ( 'NONE', #171, 1.200000000000000178 ) ;
#19 = CC_DESIGN_PERSON_AND_ORGANIZATION_ASSIGNMENT ( #67, #142, ( #119 ) ) ;
#20 = AXIS2_PLACEMENT_3D ( 'NONE', #112, #92, #187 ) ;
#21 = VERTEX_POINT ( 'NONE', #83 ) ;
#22 = ORGANIZATION ( 'UNSPECIFIED', 'UNSPECIFIED', '' ) ;
#23 = CALENDAR_DATE ( 2021, 24, 11 ) ;
#24 = ORIENTED_EDGE ( 'NONE', *, *, #154, .F. ) ;
#25 = CARTESIAN_POINT ( 'NONE',  ( 1.326762908760390423E-13, -4.653657836759941941E-15, 38.00000000000000000 ) ) ;
#26 = ORIENTED_EDGE ( 'NONE', *, *, #95, .F. ) ;
#27 = CARTESIAN_POINT ( 'NONE',  ( 1.349815555280687126E-14, 1.499999999999995337, 3.866025403784442815 ) ) ;
#28 = CC_DESIGN_PERSON_AND_ORGANIZATION_ASSIGNMENT ( #2, #65, ( #119 ) ) ;
#29 = CARTESIAN_POINT ( 'NONE',  ( 3.142333204958853152E-15, -1.102182119232629498E-16, 0.9000000000000095701 ) ) ;
#30 = AXIS2_PLACEMENT_3D ( 'NONE', #73, #32, #122 ) ;
#31 = DIRECTION ( 'NONE',  ( -3.491481338843133355E-15, 1.224646799147353207E-16, -1.000000000000000000 ) ) ;
#32 = DIRECTION ( 'NONE',  ( 3.491481338843133355E-15, -1.224646799147353207E-16, 1.000000000000000000 ) ) ;
#33 = PERSON_AND_ORGANIZATION_ROLE ( 'creator' ) ;
#34 = FACE_OUTER_BOUND ( 'NONE', #101, .T. ) ;
#35 = PERSON_AND_ORGANIZATION ( #59, #22 ) ;
#36 = CARTESIAN_POINT ( 'NONE',  ( 1.047444401652940007E-14, -3.673940397442059868E-16, 3.000000000000000000 ) ) ;
#37 = CALENDAR_DATE ( 2021, 24, 11 ) ;
#38 = APPROVAL_ROLE ( '' ) ;
#39 = APPROVAL_PERSON_ORGANIZATION ( #153, #200, #38 ) ;
#40 = AXIS2_PLACEMENT_3D ( 'NONE', #188, #237, #16 ) ;
#41 = MANIFOLD_SOLID_BREP ( 'Corps-Déplacer/Copier1[2]', #164 ) ;
#42 = SECURITY_CLASSIFICATION_LEVEL ( 'unclassified' ) ;
#43 = DIRECTION ( 'NONE',  ( 0.0000000000000000000, 1.000000000000000000, 0.0000000000000000000 ) ) ;
#44 = CONICAL_SURFACE ( 'NONE', #30, 1.000000000000000000, 0.7853981633974430610 ) ;
#45 =( NAMED_UNIT ( * ) SI_UNIT ( $, .STERADIAN. ) SOLID_ANGLE_UNIT ( ) );
#46 = EDGE_LOOP ( 'NONE', ( #147 ) ) ;
#47 = DIRECTION ( 'NONE',  ( 3.851859888774471706E-31, 1.000000000000000000, 1.084202172485504434E-16 ) ) ;
#48 = EDGE_LOOP ( 'NONE', ( #196 ) ) ;
#49 = DIRECTION ( 'NONE',  ( 4.275831445896958607E-31, 1.000000000000000000, 1.224646799147353207E-16 ) ) ;
#50 = LOCAL_TIME ( 15, 55, 45.00000000000000000, #128 ) ;
#51 = PERSON_AND_ORGANIZATION ( #59, #22 ) ;
#52 = CIRCLE ( 'NONE', #53, 1.000000000000000000 ) ;
#53 = AXIS2_PLACEMENT_3D ( 'NONE', #36, #133, #126 ) ;
#54 = EDGE_LOOP ( 'NONE', ( #4 ) ) ;
#55 = ORIENTED_EDGE ( 'NONE', *, *, #127, .F. ) ;
#56 = CC_DESIGN_DATE_AND_TIME_ASSIGNMENT ( #93, #173, ( #189 ) ) ;
#57 = CARTESIAN_POINT ( 'NONE',  ( 1.349815555280687126E-14, -4.734515636166972453E-16, 3.866025403784442815 ) ) ;
#58 = APPROVAL_STATUS ( 'not_yet_approved' ) ;
#59 = PERSON ( 'UNSPECIFIED', 'UNSPECIFIED', 'UNSPECIFIED', ('UNSPECIFIED'), ('UNSPECIFIED'), ('UNSPECIFIED') ) ;
#60 = EDGE_CURVE ( 'NONE', #195, #195, #155, .T. ) ;
#61 = CONICAL_SURFACE ( 'NONE', #223, 1.200000000000000178, 0.7853981633974453924 ) ;
#62 = APPROVAL_PERSON_ORGANIZATION ( #234, #89, #218 ) ;
#63 = APPLICATION_CONTEXT ( 'configuration controlled 3d designs of mechanical parts and assemblies' ) ;
#64 = PRODUCT_RELATED_PRODUCT_CATEGORY ( 'detail', '', ( #210 ) ) ;
#65 = PERSON_AND_ORGANIZATION_ROLE ( 'design_supplier' ) ;
#66 = FACE_OUTER_BOUND ( 'NONE', #104, .T. ) ;
#67 = PERSON_AND_ORGANIZATION ( #59, #22 ) ;
#68 = EDGE_LOOP ( 'NONE', ( #10 ) ) ;
#69 = AXIS2_PLACEMENT_3D ( 'NONE', #208, #97, #12 ) ;
#70 = DIRECTION ( 'NONE',  ( 0.0000000000000000000, 1.000000000000000000, 0.0000000000000000000 ) ) ;
#71 = DIRECTION ( 'NONE',  ( 0.0000000000000000000, 1.000000000000000000, 0.0000000000000000000 ) ) ;
#72 = DIRECTION ( 'NONE',  ( 3.491481338843133355E-15, -1.224646799147353207E-16, 1.000000000000000000 ) ) ;
#73 = CARTESIAN_POINT ( 'NONE',  ( 3.142333204958853152E-15, -1.102182119232629498E-16, 0.9000000000000095701 ) ) ;
#74 = DATE_AND_TIME ( #113, #75 ) ;
#75 = LOCAL_TIME ( 15, 55, 45.00000000000000000, #202 ) ;
#76 = DIRECTION ( 'NONE',  ( -3.491481338843133355E-15, 1.224646799147353207E-16, -1.000000000000000000 ) ) ;
#77 = ADVANCED_FACE ( 'NONE', ( #167, #146 ), #213, .T. ) ;
#78 = DIRECTION ( 'NONE',  ( -3.491481338843133355E-15, 1.224646799147353207E-16, -1.000000000000000000 ) ) ;
#79 = ADVANCED_FACE ( 'NONE', ( #82 ), #199, .F. ) ;
#80 = CARTESIAN_POINT ( 'NONE',  ( 1.326762908760390423E-13, 8.998558695971078593E-33, 38.00000000000000000 ) ) ;
#81 =( LENGTH_UNIT ( ) NAMED_UNIT ( * ) SI_UNIT ( .MILLI., .METRE. ) );
#82 = FACE_OUTER_BOUND ( 'NONE', #68, .T. ) ;
#83 = CARTESIAN_POINT ( 'NONE',  ( 3.142333204958853546E-15, 0.9999999999999997780, 0.9000000000000095701 ) ) ;
#84 = APPROVAL_DATE_TIME ( #197, #11 ) ;
#85 = DIRECTION ( 'NONE',  ( -4.275831445896958607E-31, -1.000000000000000000, -1.224646799147353207E-16 ) ) ;
#86 = AXIS2_PLACEMENT_3D ( 'NONE', #230, #76, #71 ) ;
#87 = ORIENTED_EDGE ( 'NONE', *, *, #231, .T. ) ;
#88 = DIRECTION ( 'NONE',  ( 3.491481338843133355E-15, -1.224646799147353207E-16, 1.000000000000000000 ) ) ;
#89 = APPROVAL ( #239, 'UNSPECIFIED' ) ;
#90 = DIRECTION ( 'NONE',  ( -3.491481338843133355E-15, 1.224646799147353207E-16, -1.000000000000000000 ) ) ;
#91 = CIRCLE ( 'NONE', #94, 1.500000000000000000 ) ;
#92 = DIRECTION ( 'NONE',  ( -3.491481338843133355E-15, 1.224646799147353207E-16, -1.000000000000000000 ) ) ;
#93 = DATE_AND_TIME ( #186, #229 ) ;
#94 = AXIS2_PLACEMENT_3D ( 'NONE', #184, #90, #216 ) ;
#95 = EDGE_CURVE ( 'NONE', #166, #166, #91, .T. ) ;
#96 = UNCERTAINTY_MEASURE_WITH_UNIT (LENGTH_MEASURE( 1.000000000000000082E-05 ), #81, 'distance_accuracy_value', 'NONE');
#97 = DIRECTION ( 'NONE',  ( -3.491481338843133355E-15, 1.224646799147353207E-16, -1.000000000000000000 ) ) ;
#98 = SECURITY_CLASSIFICATION ( '', '', #42 ) ;
#99 = CC_DESIGN_SECURITY_CLASSIFICATION ( #98, ( #119 ) ) ;
#100 = CARTESIAN_POINT ( 'NONE',  ( 1.326762908760390423E-13, 1.199999999999995515, 38.00000000000000000 ) ) ;
#101 = EDGE_LOOP ( 'NONE', ( #132 ) ) ;
#102 = CC_DESIGN_PERSON_AND_ORGANIZATION_ASSIGNMENT ( #35, #114, ( #210 ) ) ;
#103 = VERTEX_POINT ( 'NONE', #193 ) ;
#104 = EDGE_LOOP ( 'NONE', ( #13 ) ) ;
#105 = DIRECTION ( 'NONE',  ( -4.275831445896958607E-31, -1.000000000000000000, -1.224646799147353207E-16 ) ) ;
#106 = DATE_AND_TIME ( #23, #207 ) ;
#107 = EDGE_LOOP ( 'NONE', ( #26 ) ) ;
#108 = CIRCLE ( 'NONE', #130, 0.1000000000000000749 ) ;
#109 = DIRECTION ( 'NONE',  ( -3.491481338843133355E-15, 1.224646799147353207E-16, -1.000000000000000000 ) ) ;
#110 = DIRECTION ( 'NONE',  ( 3.491481338843133355E-15, -1.224646799147353207E-16, 1.000000000000000000 ) ) ;
#111 = CC_DESIGN_PERSON_AND_ORGANIZATION_ASSIGNMENT ( #121, #6, ( #98 ) ) ;
#112 = CARTESIAN_POINT ( 'NONE',  ( 0.0000000000000000000, 0.0000000000000000000, 0.0000000000000000000 ) ) ;
#113 = CALENDAR_DATE ( 2021, 24, 11 ) ;
#114 = PERSON_AND_ORGANIZATION_ROLE ( 'design_owner' ) ;
#115 = ADVANCED_FACE ( 'NONE', ( #209, #168 ), #44, .T. ) ;
#116 = DATE_TIME_ROLE ( 'classification_date' ) ;
#117 = CARTESIAN_POINT ( 'NONE',  ( 1.047444401652940007E-14, 7.498798913309281197E-33, 3.000000000000000000 ) ) ;
#118 = ADVANCED_FACE ( 'NONE', ( #34, #172 ), #238, .T. ) ;
#119 = PRODUCT_DEFINITION_FORMATION_WITH_SPECIFIED_SOURCE ( 'ANY', '', #210, .NOT_KNOWN. ) ;
#120 = PLANE ( 'NONE',  #169 ) ;
#121 = PERSON_AND_ORGANIZATION ( #59, #22 ) ;
#122 = DIRECTION ( 'NONE',  ( -3.851859888774471706E-31, -1.000000000000000000, -1.084202172485504434E-16 ) ) ;
#123 = FACE_OUTER_BOUND ( 'NONE', #54, .T. ) ;
#124 = PERSON_AND_ORGANIZATION ( #59, #22 ) ;
#125 = EDGE_LOOP ( 'NONE', ( #87 ) ) ;
#126 = DIRECTION ( 'NONE',  ( 0.0000000000000000000, 1.000000000000000000, 0.0000000000000000000 ) ) ;
#127 = EDGE_CURVE ( 'NONE', #145, #145, #108, .T. ) ;
#128 = COORDINATED_UNIVERSAL_TIME_OFFSET ( 1, 0, .AHEAD. ) ;
#129 = EDGE_LOOP ( 'NONE', ( #228 ) ) ;
#130 = AXIS2_PLACEMENT_3D ( 'NONE', #201, #78, #151 ) ;
#131 = COORDINATED_UNIVERSAL_TIME_OFFSET ( 1, 0, .AHEAD. ) ;
#132 = ORIENTED_EDGE ( 'NONE', *, *, #60, .F. ) ;
#133 = DIRECTION ( 'NONE',  ( -3.491481338843133355E-15, 1.224646799147353207E-16, -1.000000000000000000 ) ) ;
#134 = MECHANICAL_CONTEXT ( 'NONE', #9, 'mechanical' ) ;
#135 = DIRECTION ( 'NONE',  ( 3.491481338843133355E-15, -1.224646799147353207E-16, 1.000000000000000000 ) ) ;
#136 = APPROVAL_PERSON_ORGANIZATION ( #124, #11, #183 ) ;
#137 = APPROVAL_DATE_TIME ( #240, #200 ) ;
#138 = CALENDAR_DATE ( 2021, 24, 11 ) ;
#139 = FACE_BOUND ( 'NONE', #125, .T. ) ;
#140 = CARTESIAN_POINT ( 'NONE',  ( 2.280040600304707638E-33, -7.997305877093279915E-35, 6.530295822976318426E-19 ) ) ;
#141 = VERTEX_POINT ( 'NONE', #161 ) ;
#142 = PERSON_AND_ORGANIZATION_ROLE ( 'creator' ) ;
#143 = PRODUCT_DEFINITION_SHAPE ( 'NONE', 'NONE',  #189 ) ;
#144 = CC_DESIGN_DATE_AND_TIME_ASSIGNMENT ( #106, #116, ( #98 ) ) ;
#145 = VERTEX_POINT ( 'NONE', #1 ) ;
#146 = FACE_OUTER_BOUND ( 'NONE', #129, .T. ) ;
#147 = ORIENTED_EDGE ( 'NONE', *, *, #60, .T. ) ;
#148 = APPLICATION_PROTOCOL_DEFINITION ( 'international standard', 'config_control_design', 1994, #63 ) ;
#149 = EDGE_LOOP ( 'NONE', ( #7 ) ) ;
#150 = APPLICATION_PROTOCOL_DEFINITION ( 'international standard', 'config_control_design', 1994, #9 ) ;
#151 = DIRECTION ( 'NONE',  ( 4.275831445896958607E-31, 1.000000000000000000, 1.224646799147353207E-16 ) ) ;
#152 = ADVANCED_FACE ( 'NONE', ( #217, #14 ), #170, .T. ) ;
#153 = PERSON_AND_ORGANIZATION ( #59, #22 ) ;
#154 = EDGE_CURVE ( 'NONE', #103, #103, #52, .T. ) ;
#155 = CIRCLE ( 'NONE', #86, 1.499999999999995781 ) ;
#156 = CC_DESIGN_APPROVAL ( #89, ( #189 ) ) ;
#157 = AXIS2_PLACEMENT_3D ( 'NONE', #140, #110, #85 ) ;
#158 = CARTESIAN_POINT ( 'NONE',  ( 1.326762908760390423E-13, -4.653657836759941941E-15, 38.00000000000000000 ) ) ;
#159 = ADVANCED_FACE ( 'NONE', ( #123 ), #120, .F. ) ;
#160 = SHAPE_DEFINITION_REPRESENTATION ( #143, #8 ) ;
#161 = CARTESIAN_POINT ( 'NONE',  ( 1.047444401652940007E-14, 0.9999999999999995559, 3.000000000000000000 ) ) ;
#162 = EDGE_LOOP ( 'NONE', ( #55 ) ) ;
#163 = AXIS2_PLACEMENT_3D ( 'NONE', #57, #135, #203 ) ;
#164 = CLOSED_SHELL ( 'NONE', ( #79, #115, #77, #191 ) ) ;
#165 = FACE_OUTER_BOUND ( 'NONE', #48, .T. ) ;
#166 = VERTEX_POINT ( 'NONE', #180 ) ;
#167 = FACE_OUTER_BOUND ( 'NONE', #178, .T. ) ;
#168 = FACE_OUTER_BOUND ( 'NONE', #214, .T. ) ;
#169 = AXIS2_PLACEMENT_3D ( 'NONE', #80, #192, #182 ) ;
#170 = CONICAL_SURFACE ( 'NONE', #163, 1.499999999999995781, 0.5235987755982930425 ) ;
#171 = AXIS2_PLACEMENT_3D ( 'NONE', #25, #179, #43 ) ;
#172 = FACE_OUTER_BOUND ( 'NONE', #149, .T. ) ;
#173 = DATE_TIME_ROLE ( 'creation_date' ) ;
#174 = AXIS2_PLACEMENT_3D ( 'NONE', #117, #88, #176 ) ;
#175 = AXIS2_PLACEMENT_3D ( 'NONE', #17, #72, #105 ) ;
#176 = DIRECTION ( 'NONE',  ( -4.275831445896958607E-31, -1.000000000000000000, -1.224646799147353207E-16 ) ) ;
#177 = APPROVAL_STATUS ( 'not_yet_approved' ) ;
#178 = EDGE_LOOP ( 'NONE', ( #185 ) ) ;
#179 = DIRECTION ( 'NONE',  ( -3.491481338843133355E-15, 1.224646799147353207E-16, -1.000000000000000000 ) ) ;
#180 = CARTESIAN_POINT ( 'NONE',  ( 1.316288464743861212E-13, 1.499999999999995559, 37.69999999999999574 ) ) ;
#181 = ORIENTED_EDGE ( 'NONE', *, *, #221, .T. ) ;
#182 = DIRECTION ( 'NONE',  ( 4.275831445896958607E-31, 1.000000000000000000, 1.224646799147353207E-16 ) ) ;
#183 = APPROVAL_ROLE ( '' ) ;
#184 = CARTESIAN_POINT ( 'NONE',  ( 1.316288464743861212E-13, -4.616918432785521081E-15, 37.69999999999999574 ) ) ;
#185 = ORIENTED_EDGE ( 'NONE', *, *, #221, .F. ) ;
#186 = CALENDAR_DATE ( 2021, 24, 11 ) ;
#187 = DIRECTION ( 'NONE',  ( 4.275831445896959482E-31, 1.000000000000000000, 1.224646799147353207E-16 ) ) ;
#188 = CARTESIAN_POINT ( 'NONE',  ( 0.0000000000000000000, 0.0000000000000000000, 0.0000000000000000000 ) ) ;
#189 = PRODUCT_DEFINITION ( 'UNKNOWN', '', #119, #225 ) ;
#190 = AXIS2_PLACEMENT_3D ( 'NONE', #29, #109, #47 ) ;
#191 = ADVANCED_FACE ( 'NONE', ( #66 ), #194, .T. ) ;
#192 = DIRECTION ( 'NONE',  ( -3.491481338843133355E-15, 1.224646799147353207E-16, -1.000000000000000000 ) ) ;
#193 = CARTESIAN_POINT ( 'NONE',  ( 1.047444401652940007E-14, 0.9999999999999995559, 3.000000000000000000 ) ) ;
#194 = PLANE ( 'NONE',  #175 ) ;
#195 = VERTEX_POINT ( 'NONE', #27 ) ;
#196 = ORIENTED_EDGE ( 'NONE', *, *, #154, .T. ) ;
#197 = DATE_AND_TIME ( #138, #50 ) ;
#198 = CLOSED_SHELL ( 'NONE', ( #241, #152, #118, #220, #159 ) ) ;
#199 = PLANE ( 'NONE',  #157 ) ;
#200 = APPROVAL ( #58, 'UNSPECIFIED' ) ;
#201 = CARTESIAN_POINT ( 'NONE',  ( 4.560081200609415276E-33, -1.599461175418655983E-34, 1.306059164595263685E-18 ) ) ;
#202 = COORDINATED_UNIVERSAL_TIME_OFFSET ( 1, 0, .AHEAD. ) ;
#203 = DIRECTION ( 'NONE',  ( 0.0000000000000000000, -1.000000000000000000, 0.0000000000000000000 ) ) ;
#204 =( GEOMETRIC_REPRESENTATION_CONTEXT ( 3 ) GLOBAL_UNCERTAINTY_ASSIGNED_CONTEXT ( ( #96 ) ) GLOBAL_UNIT_ASSIGNED_CONTEXT ( ( #81, #3, #45 ) ) REPRESENTATION_CONTEXT ( 'NONE', 'WORKASPACE' ) );
#205 = MANIFOLD_SOLID_BREP ( 'Corps-Déplacer/Copier1[1]', #198 ) ;
#206 = COORDINATED_UNIVERSAL_TIME_OFFSET ( 1, 0, .AHEAD. ) ;
#207 = LOCAL_TIME ( 15, 55, 45.00000000000000000, #226 ) ;
#208 = CARTESIAN_POINT ( 'NONE',  ( 1.047444401652940007E-14, -3.673940397442059868E-16, 3.000000000000000000 ) ) ;
#209 = FACE_BOUND ( 'NONE', #162, .T. ) ;
#210 = PRODUCT ( '956865', '956865', '', ( #134 ) ) ;
#211 = EDGE_LOOP ( 'NONE', ( #24 ) ) ;
#212 = VERTEX_POINT ( 'NONE', #100 ) ;
#213 = CYLINDRICAL_SURFACE ( 'NONE', #219, 1.000000000000000000 ) ;
#214 = EDGE_LOOP ( 'NONE', ( #181 ) ) ;
#215 = APPROVAL_DATE_TIME ( #74, #89 ) ;
#216 = DIRECTION ( 'NONE',  ( 0.0000000000000000000, 1.000000000000000000, 0.0000000000000000000 ) ) ;
#217 = FACE_BOUND ( 'NONE', #211, .T. ) ;
#218 = APPROVAL_ROLE ( '' ) ;
#219 = AXIS2_PLACEMENT_3D ( 'NONE', #233, #31, #49 ) ;
#220 = ADVANCED_FACE ( 'NONE', ( #227, #139 ), #61, .T. ) ;
#221 = EDGE_CURVE ( 'NONE', #21, #21, #236, .T. ) ;
#222 = CC_DESIGN_APPROVAL ( #11, ( #98 ) ) ;
#223 = AXIS2_PLACEMENT_3D ( 'NONE', #158, #232, #70 ) ;
#224 = EDGE_CURVE ( 'NONE', #141, #141, #15, .T. ) ;
#225 = DESIGN_CONTEXT ( 'detailed design', #63, 'design' ) ;
#226 = COORDINATED_UNIVERSAL_TIME_OFFSET ( 1, 0, .AHEAD. ) ;
#227 = FACE_OUTER_BOUND ( 'NONE', #107, .T. ) ;
#228 = ORIENTED_EDGE ( 'NONE', *, *, #224, .T. ) ;
#229 = LOCAL_TIME ( 15, 55, 45.00000000000000000, #131 ) ;
#230 = CARTESIAN_POINT ( 'NONE',  ( 1.349815555280687126E-14, -4.734515636166972453E-16, 3.866025403784442815 ) ) ;
#231 = EDGE_CURVE ( 'NONE', #212, #212, #18, .T. ) ;
#232 = DIRECTION ( 'NONE',  ( -3.491481338843133355E-15, 1.224646799147353207E-16, -1.000000000000000000 ) ) ;
#233 = CARTESIAN_POINT ( 'NONE',  ( 0.0000000000000000000, 0.0000000000000000000, 0.0000000000000000000 ) ) ;
#234 = PERSON_AND_ORGANIZATION ( #59, #22 ) ;
#235 = CC_DESIGN_APPROVAL ( #200, ( #119 ) ) ;
#236 = CIRCLE ( 'NONE', #190, 1.000000000000000000 ) ;
#237 = DIRECTION ( 'NONE',  ( 0.0000000000000000000, 0.0000000000000000000, 1.000000000000000000 ) ) ;
#238 = CYLINDRICAL_SURFACE ( 'NONE', #20, 1.499999999999997780 ) ;
#239 = APPROVAL_STATUS ( 'not_yet_approved' ) ;
#240 = DATE_AND_TIME ( #37, #243 ) ;
#241 = ADVANCED_FACE ( 'NONE', ( #165 ), #5, .F. ) ;
#242 = CC_DESIGN_PERSON_AND_ORGANIZATION_ASSIGNMENT ( #51, #33, ( #189 ) ) ;
#243 = LOCAL_TIME ( 15, 55, 45.00000000000000000, #206 ) ;
ENDSEC;
END-ISO-10303-21;
