ISO-10303-21;
HEADER;
FILE_DESCRIPTION (( 'STEP AP203' ),
    '1' );
FILE_NAME ('956864.step',
    '2023-02-16T09:47:37',
    ( '' ),
    ( '' ),
    'SwSTEP 2.0',
    'SolidWorks 2019',
    '' );
FILE_SCHEMA (( 'CONFIG_CONTROL_DESIGN' ));
ENDSEC;

DATA;
#1 = VERTEX_POINT ( 'NONE', #98 ) ;
#2 = EDGE_LOOP ( 'NONE', ( #13 ) ) ;
#3 = DIRECTION ( 'NONE',  ( 1.000000000000000000, 1.224646799147353207E-16, -0.000000000000000000 ) ) ;
#4 = CYLINDRICAL_SURFACE ( 'NONE', #165, 1.999999999999998224 ) ;
#5 = APPLICATION_CONTEXT ( 'configuration controlled 3d designs of mechanical parts and assemblies' ) ;
#6 = CC_DESIGN_PERSON_AND_ORGANIZATION_ASSIGNMENT ( #162, #40, ( #45 ) ) ;
#7 =( NAMED_UNIT ( * ) PLANE_ANGLE_UNIT ( ) SI_UNIT ( $, .RADIAN. ) );
#8 = CALENDAR_DATE ( 2023, 16, 2 ) ;
#9 =( LENGTH_UNIT ( ) NAMED_UNIT ( * ) SI_UNIT ( .MILLI., .METRE. ) );
#10 = LOCAL_TIME ( 10, 47, 37.00000000000000000, #76 ) ;
#11 = CLOSED_SHELL ( 'NONE', ( #55, #163, #179, #195 ) ) ;
#12 = PRODUCT ( '956864', '956864', '', ( #22 ) ) ;
#13 = ORIENTED_EDGE ( 'NONE', *, *, #100, .T. ) ;
#14 = ADVANCED_FACE ( 'NONE', ( #174 ), #193, .T. ) ;
#15 = PERSON ( 'UNSPECIFIED', 'UNSPECIFIED', 'UNSPECIFIED', ('UNSPECIFIED'), ('UNSPECIFIED'), ('UNSPECIFIED') ) ;
#16 = PLANE ( 'NONE',  #137 ) ;
#17 = DIRECTION ( 'NONE',  ( 1.224646799147353207E-16, -1.000000000000000000, 0.000000000000000000 ) ) ;
#18 = CARTESIAN_POINT ( 'NONE',  ( 0.000000000000000000, 0.2000000000000000111, 0.000000000000000000 ) ) ;
#19 = APPROVAL ( #149, 'UNSPECIFIED' ) ;
#20 = CARTESIAN_POINT ( 'NONE',  ( -50.00000000000000000, -6.123233995736766085E-15, 0.000000000000000000 ) ) ;
#21 = CARTESIAN_POINT ( 'NONE',  ( -1.799999999999988942, -2.204364238465222017E-16, 0.000000000000000000 ) ) ;
#22 = MECHANICAL_CONTEXT ( 'NONE', #108, 'mechanical' ) ;
#23 = AXIS2_PLACEMENT_3D ( 'NONE', #20, #33, #114 ) ;
#24 =( NAMED_UNIT ( * ) SI_UNIT ( $, .STERADIAN. ) SOLID_ANGLE_UNIT ( ) );
#25 = COORDINATED_UNIVERSAL_TIME_OFFSET ( 1, 0, .AHEAD. ) ;
#26 = COORDINATED_UNIVERSAL_TIME_OFFSET ( 1, 0, .AHEAD. ) ;
#27 = APPROVAL_ROLE ( '' ) ;
#28 = APPROVAL ( #58, 'UNSPECIFIED' ) ;
#29 = EDGE_LOOP ( 'NONE', ( #140 ) ) ;
#30 = CIRCLE ( 'NONE', #68, 1.999999999999995781 ) ;
#31 = FACE_OUTER_BOUND ( 'NONE', #152, .T. ) ;
#32 = DIRECTION ( 'NONE',  ( 0.000000000000000000, 1.000000000000000000, 0.000000000000000000 ) ) ;
#33 = DIRECTION ( 'NONE',  ( 1.000000000000000000, 1.224646799147353207E-16, -0.000000000000000000 ) ) ;
#34 = MANIFOLD_SOLID_BREP ( 'Révolution1', #11 ) ;
#35 = DIRECTION ( 'NONE',  ( -1.000000000000000000, -1.224646799147353207E-16, 0.000000000000000000 ) ) ;
#36 = DIRECTION ( 'NONE',  ( 1.000000000000000000, 1.224646799147353207E-16, -0.000000000000000000 ) ) ;
#37 = DATE_AND_TIME ( #116, #119 ) ;
#38 = PERSON_AND_ORGANIZATION ( #15, #148 ) ;
#39 = DATE_AND_TIME ( #77, #202 ) ;
#40 = PERSON_AND_ORGANIZATION_ROLE ( 'classification_officer' ) ;
#41 = CALENDAR_DATE ( 2023, 16, 2 ) ;
#42 = CC_DESIGN_DATE_AND_TIME_ASSIGNMENT ( #37, #178, ( #147 ) ) ;
#43 = DESIGN_CONTEXT ( 'detailed design', #5, 'design' ) ;
#44 = EDGE_LOOP ( 'NONE', ( #184 ) ) ;
#45 = SECURITY_CLASSIFICATION ( '', '', #107 ) ;
#46 = AXIS2_PLACEMENT_3D ( 'NONE', #173, #35, #142 ) ;
#47 = DIRECTION ( 'NONE',  ( 0.000000000000000000, 1.000000000000000000, 0.000000000000000000 ) ) ;
#48 = CARTESIAN_POINT ( 'NONE',  ( 0.000000000000000000, 0.000000000000000000, 0.000000000000000000 ) ) ;
#49 = ADVANCED_FACE ( 'NONE', ( #145, #52 ), #150, .T. ) ;
#50 = DIRECTION ( 'NONE',  ( 1.000000000000000000, 1.224646799147353207E-16, -0.000000000000000000 ) ) ;
#51 = CARTESIAN_POINT ( 'NONE',  ( 1.224646799147353269E-17, 1.499759782661857779E-33, 0.000000000000000000 ) ) ;
#52 = FACE_BOUND ( 'NONE', #62, .T. ) ;
#53 = DATE_AND_TIME ( #134, #79 ) ;
#54 = PERSON_AND_ORGANIZATION ( #15, #148 ) ;
#55 = ADVANCED_FACE ( 'NONE', ( #31 ), #16, .F. ) ;
#56 = PERSON_AND_ORGANIZATION ( #15, #148 ) ;
#57 = APPROVAL_PERSON_ORGANIZATION ( #38, #19, #161 ) ;
#58 = APPROVAL_STATUS ( 'not_yet_approved' ) ;
#59 = UNCERTAINTY_MEASURE_WITH_UNIT (LENGTH_MEASURE( 1.000000000000000082E-05 ), #9, 'distance_accuracy_value', 'NONE');
#60 = CLOSED_SHELL ( 'NONE', ( #14, #49, #94 ) ) ;
#61 = CC_DESIGN_PERSON_AND_ORGANIZATION_ASSIGNMENT ( #194, #160, ( #199 ) ) ;
#62 = EDGE_LOOP ( 'NONE', ( #168 ) ) ;
#63 = EDGE_LOOP ( 'NONE', ( #186 ) ) ;
#64 = EDGE_CURVE ( 'NONE', #158, #158, #30, .T. ) ;
#65 = ADVANCED_BREP_SHAPE_REPRESENTATION ( '956864', ( #34, #166, #87 ), #123 ) ;
#66 = VERTEX_POINT ( 'NONE', #97 ) ;
#67 = CC_DESIGN_APPROVAL ( #28, ( #147 ) ) ;
#68 = AXIS2_PLACEMENT_3D ( 'NONE', #157, #69, #99 ) ;
#69 = DIRECTION ( 'NONE',  ( 1.000000000000000000, 1.224646799147353207E-16, -0.000000000000000000 ) ) ;
#70 = DIRECTION ( 'NONE',  ( 1.000000000000000000, 1.224646799147353207E-16, -0.000000000000000000 ) ) ;
#71 = AXIS2_PLACEMENT_3D ( 'NONE', #144, #3, #130 ) ;
#72 = PLANE ( 'NONE',  #46 ) ;
#73 = FACE_BOUND ( 'NONE', #139, .T. ) ;
#74 = APPROVAL_DATE_TIME ( #39, #28 ) ;
#75 = COORDINATED_UNIVERSAL_TIME_OFFSET ( 1, 0, .AHEAD. ) ;
#76 = COORDINATED_UNIVERSAL_TIME_OFFSET ( 1, 0, .AHEAD. ) ;
#77 = CALENDAR_DATE ( 2023, 16, 2 ) ;
#78 = CC_DESIGN_PERSON_AND_ORGANIZATION_ASSIGNMENT ( #133, #136, ( #147 ) ) ;
#79 = LOCAL_TIME ( 10, 47, 37.00000000000000000, #26 ) ;
#80 = CC_DESIGN_PERSON_AND_ORGANIZATION_ASSIGNMENT ( #54, #135, ( #12 ) ) ;
#81 = FACE_OUTER_BOUND ( 'NONE', #125, .T. ) ;
#82 = VERTEX_POINT ( 'NONE', #143 ) ;
#83 = DIRECTION ( 'NONE',  ( 1.000000000000000000, 1.224646799147353207E-16, -0.000000000000000000 ) ) ;
#84 = DIRECTION ( 'NONE',  ( -1.224646799147353207E-16, 1.000000000000000000, 0.000000000000000000 ) ) ;
#85 = AXIS2_PLACEMENT_3D ( 'NONE', #102, #70, #47 ) ;
#86 = CARTESIAN_POINT ( 'NONE',  ( 0.000000000000000000, 0.000000000000000000, 0.000000000000000000 ) ) ;
#87 = AXIS2_PLACEMENT_3D ( 'NONE', #86, #105, #159 ) ;
#88 = CC_DESIGN_SECURITY_CLASSIFICATION ( #45, ( #199 ) ) ;
#89 = EDGE_CURVE ( 'NONE', #1, #1, #200, .T. ) ;
#90 = DATE_TIME_ROLE ( 'classification_date' ) ;
#91 = APPLICATION_PROTOCOL_DEFINITION ( 'international standard', 'config_control_design', 1994, #5 ) ;
#92 = ORIENTED_EDGE ( 'NONE', *, *, #100, .F. ) ;
#93 = AXIS2_PLACEMENT_3D ( 'NONE', #21, #50, #172 ) ;
#94 = ADVANCED_FACE ( 'NONE', ( #192 ), #72, .T. ) ;
#95 = CIRCLE ( 'NONE', #188, 0.2000000000000000111 ) ;
#96 = CC_DESIGN_PERSON_AND_ORGANIZATION_ASSIGNMENT ( #56, #104, ( #199 ) ) ;
#97 = CARTESIAN_POINT ( 'NONE',  ( -49.60000000000000853, 1.999999999999995337, 0.000000000000000000 ) ) ;
#98 = CARTESIAN_POINT ( 'NONE',  ( -50.00000000000000000, 1.599999999999994982, 0.000000000000000000 ) ) ;
#99 = DIRECTION ( 'NONE',  ( -1.084202172485506776E-16, 1.000000000000000000, 0.000000000000000000 ) ) ;
#100 = EDGE_CURVE ( 'NONE', #66, #66, #167, .T. ) ;
#101 = FACE_OUTER_BOUND ( 'NONE', #153, .T. ) ;
#102 = CARTESIAN_POINT ( 'NONE',  ( -49.60000000000000853, -6.074248123770872657E-15, 0.000000000000000000 ) ) ;
#103 = CC_DESIGN_APPROVAL ( #19, ( #45 ) ) ;
#104 = PERSON_AND_ORGANIZATION_ROLE ( 'creator' ) ;
#105 = DIRECTION ( 'NONE',  ( 0.000000000000000000, 0.000000000000000000, 1.000000000000000000 ) ) ;
#106 = AXIS2_PLACEMENT_3D ( 'NONE', #112, #83, #32 ) ;
#107 = SECURITY_CLASSIFICATION_LEVEL ( 'unclassified' ) ;
#108 = APPLICATION_CONTEXT ( 'configuration controlled 3d designs of mechanical parts and assemblies' ) ;
#109 = SHAPE_DEFINITION_REPRESENTATION ( #151, #65 ) ;
#110 = DIRECTION ( 'NONE',  ( -1.000000000000000000, -1.224646799147353207E-16, 0.000000000000000000 ) ) ;
#111 = FACE_OUTER_BOUND ( 'NONE', #63, .T. ) ;
#112 = CARTESIAN_POINT ( 'NONE',  ( -50.00000000000000000, -6.123233995736766085E-15, 0.000000000000000000 ) ) ;
#113 = DIRECTION ( 'NONE',  ( 1.000000000000000000, 1.224646799147353207E-16, -0.000000000000000000 ) ) ;
#114 = DIRECTION ( 'NONE',  ( 0.000000000000000000, 1.000000000000000000, 0.000000000000000000 ) ) ;
#115 = EDGE_CURVE ( 'NONE', #156, #156, #95, .T. ) ;
#116 = CALENDAR_DATE ( 2023, 16, 2 ) ;
#117 = DATE_AND_TIME ( #41, #10 ) ;
#118 = APPROVAL_DATE_TIME ( #197, #19 ) ;
#119 = LOCAL_TIME ( 10, 47, 37.00000000000000000, #75 ) ;
#120 = AXIS2_PLACEMENT_3D ( 'NONE', #129, #126, #189 ) ;
#121 = PERSON_AND_ORGANIZATION ( #15, #148 ) ;
#122 = ORIENTED_EDGE ( 'NONE', *, *, #64, .T. ) ;
#123 =( GEOMETRIC_REPRESENTATION_CONTEXT ( 3 ) GLOBAL_UNCERTAINTY_ASSIGNED_CONTEXT ( ( #59 ) ) GLOBAL_UNIT_ASSIGNED_CONTEXT ( ( #9, #7, #24 ) ) REPRESENTATION_CONTEXT ( 'NONE', 'WORKASPACE' ) );
#124 = PRODUCT_RELATED_PRODUCT_CATEGORY ( 'detail', '', ( #12 ) ) ;
#125 = EDGE_LOOP ( 'NONE', ( #92 ) ) ;
#126 = DIRECTION ( 'NONE',  ( -1.000000000000000000, -1.224646799147353207E-16, 0.000000000000000000 ) ) ;
#127 = AXIS2_PLACEMENT_3D ( 'NONE', #51, #113, #154 ) ;
#128 = DIRECTION ( 'NONE',  ( -1.224646799147353207E-16, 1.000000000000000000, 0.000000000000000000 ) ) ;
#129 = CARTESIAN_POINT ( 'NONE',  ( 2.449293598294706538E-17, 2.999519565323715558E-33, 0.000000000000000000 ) ) ;
#130 = DIRECTION ( 'NONE',  ( -1.224646799147353207E-16, 1.000000000000000000, 0.000000000000000000 ) ) ;
#131 = CARTESIAN_POINT ( 'NONE',  ( -1.799999999999989164, 1.999999999999995337, 0.000000000000000000 ) ) ;
#132 = APPROVAL ( #183, 'UNSPECIFIED' ) ;
#133 = PERSON_AND_ORGANIZATION ( #15, #148 ) ;
#134 = CALENDAR_DATE ( 2023, 16, 2 ) ;
#135 = PERSON_AND_ORGANIZATION_ROLE ( 'design_owner' ) ;
#136 = PERSON_AND_ORGANIZATION_ROLE ( 'creator' ) ;
#137 = AXIS2_PLACEMENT_3D ( 'NONE', #190, #110, #17 ) ;
#138 = APPROVAL_PERSON_ORGANIZATION ( #198, #28, #27 ) ;
#139 = EDGE_LOOP ( 'NONE', ( #164 ) ) ;
#140 = ORIENTED_EDGE ( 'NONE', *, *, #115, .T. ) ;
#141 = DIRECTION ( 'NONE',  ( 1.000000000000000000, 1.224646799147353207E-16, -0.000000000000000000 ) ) ;
#142 = DIRECTION ( 'NONE',  ( 1.224646799147353207E-16, -1.000000000000000000, 0.000000000000000000 ) ) ;
#143 = CARTESIAN_POINT ( 'NONE',  ( -1.799999999999989164, 1.999999999999995337, 0.000000000000000000 ) ) ;
#144 = CARTESIAN_POINT ( 'NONE',  ( -50.00000000000000000, 1.199807826129477876E-32, 0.000000000000000000 ) ) ;
#145 = FACE_OUTER_BOUND ( 'NONE', #44, .T. ) ;
#146 = APPROVAL_PERSON_ORGANIZATION ( #121, #132, #196 ) ;
#147 = PRODUCT_DEFINITION ( 'UNKNOWN', '', #199, #43 ) ;
#148 = ORGANIZATION ( 'UNSPECIFIED', 'UNSPECIFIED', '' ) ;
#149 = APPROVAL_STATUS ( 'not_yet_approved' ) ;
#150 = CONICAL_SURFACE ( 'NONE', #120, 0.2000000000000000111, 0.7853981633974501664 ) ;
#151 = PRODUCT_DEFINITION_SHAPE ( 'NONE', 'NONE',  #147 ) ;
#152 = EDGE_LOOP ( 'NONE', ( #122 ) ) ;
#153 = EDGE_LOOP ( 'NONE', ( #201 ) ) ;
#154 = DIRECTION ( 'NONE',  ( -1.224646799147353207E-16, 1.000000000000000000, 0.000000000000000000 ) ) ;
#155 = EDGE_CURVE ( 'NONE', #82, #82, #177, .T. ) ;
#156 = VERTEX_POINT ( 'NONE', #18 ) ;
#157 = CARTESIAN_POINT ( 'NONE',  ( -1.799999999999988942, -2.204364238465222017E-16, 0.000000000000000000 ) ) ;
#158 = VERTEX_POINT ( 'NONE', #131 ) ;
#159 = DIRECTION ( 'NONE',  ( 1.000000000000000000, 0.000000000000000000, 0.000000000000000000 ) ) ;
#160 = PERSON_AND_ORGANIZATION_ROLE ( 'design_supplier' ) ;
#161 = APPROVAL_ROLE ( '' ) ;
#162 = PERSON_AND_ORGANIZATION ( #15, #148 ) ;
#163 = ADVANCED_FACE ( 'NONE', ( #101, #169 ), #4, .T. ) ;
#164 = ORIENTED_EDGE ( 'NONE', *, *, #89, .T. ) ;
#165 = AXIS2_PLACEMENT_3D ( 'NONE', #48, #36, #84 ) ;
#166 = MANIFOLD_SOLID_BREP ( 'Révolution2', #60 ) ;
#167 = CIRCLE ( 'NONE', #85, 2.000000000000001332 ) ;
#168 = ORIENTED_EDGE ( 'NONE', *, *, #115, .F. ) ;
#169 = FACE_OUTER_BOUND ( 'NONE', #2, .T. ) ;
#170 = CC_DESIGN_DATE_AND_TIME_ASSIGNMENT ( #53, #90, ( #45 ) ) ;
#171 = PLANE ( 'NONE',  #71 ) ;
#172 = DIRECTION ( 'NONE',  ( -1.084202172485506776E-16, 1.000000000000000000, 0.000000000000000000 ) ) ;
#173 = CARTESIAN_POINT ( 'NONE',  ( -1.799999999999988942, -1.951563910473900093E-16, 0.000000000000000000 ) ) ;
#174 = FACE_OUTER_BOUND ( 'NONE', #29, .T. ) ;
#175 = APPLICATION_PROTOCOL_DEFINITION ( 'international standard', 'config_control_design', 1994, #108 ) ;
#176 = CC_DESIGN_APPROVAL ( #132, ( #199 ) ) ;
#177 = CIRCLE ( 'NONE', #93, 1.999999999999995781 ) ;
#178 = DATE_TIME_ROLE ( 'creation_date' ) ;
#179 = ADVANCED_FACE ( 'NONE', ( #81, #73 ), #180, .T. ) ;
#180 = CONICAL_SURFACE ( 'NONE', #106, 1.600000000000001199, 0.7853981633974516097 ) ;
#181 = COORDINATED_UNIVERSAL_TIME_OFFSET ( 1, 0, .AHEAD. ) ;
#182 = APPROVAL_DATE_TIME ( #117, #132 ) ;
#183 = APPROVAL_STATUS ( 'not_yet_approved' ) ;
#184 = ORIENTED_EDGE ( 'NONE', *, *, #155, .T. ) ;
#185 = ORIENTED_EDGE ( 'NONE', *, *, #155, .F. ) ;
#186 = ORIENTED_EDGE ( 'NONE', *, *, #89, .F. ) ;
#187 = LOCAL_TIME ( 10, 47, 37.00000000000000000, #25 ) ;
#188 = AXIS2_PLACEMENT_3D ( 'NONE', #191, #141, #128 ) ;
#189 = DIRECTION ( 'NONE',  ( 1.224646799147353207E-16, -1.000000000000000000, 0.000000000000000000 ) ) ;
#190 = CARTESIAN_POINT ( 'NONE',  ( -1.799999999999988942, -1.951563910473900093E-16, 0.000000000000000000 ) ) ;
#191 = CARTESIAN_POINT ( 'NONE',  ( 2.449293598294706538E-17, 2.999519565323715558E-33, 0.000000000000000000 ) ) ;
#192 = FACE_OUTER_BOUND ( 'NONE', #203, .T. ) ;
#193 = PLANE ( 'NONE',  #127 ) ;
#194 = PERSON_AND_ORGANIZATION ( #15, #148 ) ;
#195 = ADVANCED_FACE ( 'NONE', ( #111 ), #171, .F. ) ;
#196 = APPROVAL_ROLE ( '' ) ;
#197 = DATE_AND_TIME ( #8, #187 ) ;
#198 = PERSON_AND_ORGANIZATION ( #15, #148 ) ;
#199 = PRODUCT_DEFINITION_FORMATION_WITH_SPECIFIED_SOURCE ( 'ANY', '', #12, .NOT_KNOWN. ) ;
#200 = CIRCLE ( 'NONE', #23, 1.600000000000001199 ) ;
#201 = ORIENTED_EDGE ( 'NONE', *, *, #64, .F. ) ;
#202 = LOCAL_TIME ( 10, 47, 37.00000000000000000, #181 ) ;
#203 = EDGE_LOOP ( 'NONE', ( #185 ) ) ;
ENDSEC;
END-ISO-10303-21;
