ISO-10303-21;
HEADER;
FILE_DESCRIPTION (( 'STEP AP203' ),
    '1' );
FILE_NAME ('956863.step',
    '2021-11-24T14:55:44',
    ( '' ),
    ( '' ),
    'SwSTEP 2.0',
    'SolidWorks 2019',
    '' );
FILE_SCHEMA (( 'CONFIG_CONTROL_DESIGN' ));
ENDSEC;

DATA;
#1 = CARTESIAN_POINT ( 'NONE',  ( 1.731774744066194397E-13, -6.074248123770872657E-15, 49.60000000000000853 ) ) ;
#2 = PERSON_AND_ORGANIZATION ( #191, #157 ) ;
#3 = DIRECTION ( 'NONE',  ( 3.851859888774480026E-31, 1.000000000000000000, 1.084202172485506776E-16 ) ) ;
#4 = SECURITY_CLASSIFICATION_LEVEL ( 'unclassified' ) ;
#5 = SHAPE_DEFINITION_REPRESENTATION ( #169, #171 ) ;
#6 = ADVANCED_FACE ( 'NONE', ( #192, #27 ), #12, .T. ) ;
#7 = CIRCLE ( 'NONE', #109, 2.000000000000001332 ) ;
#8 = APPROVAL_PERSON_ORGANIZATION ( #199, #132, #52 ) ;
#9 = PERSON_AND_ORGANIZATION ( #191, #157 ) ;
#10 = DIRECTION ( 'NONE',  ( -4.275831445896958607E-31, -1.000000000000000000, -1.224646799147353207E-16 ) ) ;
#11 = APPROVAL_ROLE ( '' ) ;
#12 = CYLINDRICAL_SURFACE ( 'NONE', #31, 1.999999999999998224 ) ;
#13 = FACE_OUTER_BOUND ( 'NONE', #170, .T. ) ;
#14 = CIRCLE ( 'NONE', #21, 1.999999999999995781 ) ;
#15 = PLANE ( 'NONE',  #119 ) ;
#16 = EDGE_CURVE ( 'NONE', #114, #114, #7, .T. ) ;
#17 = EDGE_LOOP ( 'NONE', ( #77 ) ) ;
#18 = DIRECTION ( 'NONE',  ( -3.491481338843133355E-15, 1.224646799147353207E-16, -1.000000000000000000 ) ) ;
#19 = PERSON_AND_ORGANIZATION_ROLE ( 'design_supplier' ) ;
#20 = LOCAL_TIME ( 15, 55, 44.00000000000000000, #30 ) ;
#21 = AXIS2_PLACEMENT_3D ( 'NONE', #101, #184, #35 ) ;
#22 = CARTESIAN_POINT ( 'NONE',  ( 0.0000000000000000000, 0.0000000000000000000, 0.0000000000000000000 ) ) ;
#23 = DIRECTION ( 'NONE',  ( -3.491481338843133355E-15, 1.224646799147353207E-16, -1.000000000000000000 ) ) ;
#24 = DATE_AND_TIME ( #34, #155 ) ;
#25 = PRODUCT_DEFINITION ( 'UNKNOWN', '', #135, #62 ) ;
#26 = EDGE_LOOP ( 'NONE', ( #127 ) ) ;
#27 = FACE_OUTER_BOUND ( 'NONE', #91, .T. ) ;
#28 = ORIENTED_EDGE ( 'NONE', *, *, #141, .F. ) ;
#29 = CALENDAR_DATE ( 2021, 24, 11 ) ;
#30 = COORDINATED_UNIVERSAL_TIME_OFFSET ( 1, 0, .AHEAD. ) ;
#31 = AXIS2_PLACEMENT_3D ( 'NONE', #124, #146, #64 ) ;
#32 = PERSON_AND_ORGANIZATION_ROLE ( 'design_owner' ) ;
#33 = DIRECTION ( 'NONE',  ( 4.275831445896958607E-31, 1.000000000000000000, 1.224646799147353207E-16 ) ) ;
#34 = CALENDAR_DATE ( 2021, 24, 11 ) ;
#35 = DIRECTION ( 'NONE',  ( 3.851859888774480026E-31, 1.000000000000000000, 1.084202172485506776E-16 ) ) ;
#36 = APPLICATION_PROTOCOL_DEFINITION ( 'international standard', 'config_control_design', 1994, #79 ) ;
#37 = CARTESIAN_POINT ( 'NONE',  ( 6.284666409917602174E-15, 1.999999999999995337, 1.799999999999989164 ) ) ;
#38 = EDGE_LOOP ( 'NONE', ( #28 ) ) ;
#39 = AXIS2_PLACEMENT_3D ( 'NONE', #100, #185, #189 ) ;
#40 = CARTESIAN_POINT ( 'NONE',  ( 0.0000000000000000000, 0.2000000000000000111, 0.0000000000000000000 ) ) ;
#41 = FACE_OUTER_BOUND ( 'NONE', #128, .T. ) ;
#42 = PERSON_AND_ORGANIZATION ( #191, #157 ) ;
#43 = CALENDAR_DATE ( 2021, 24, 11 ) ;
#44 = COORDINATED_UNIVERSAL_TIME_OFFSET ( 1, 0, .AHEAD. ) ;
#45 = CLOSED_SHELL ( 'NONE', ( #178, #6, #84, #58 ) ) ;
#46 = APPLICATION_CONTEXT ( 'configuration controlled 3d designs of mechanical parts and assemblies' ) ;
#47 = CIRCLE ( 'NONE', #167, 1.600000000000001199 ) ;
#48 = CC_DESIGN_APPROVAL ( #179, ( #25 ) ) ;
#49 = CC_DESIGN_PERSON_AND_ORGANIZATION_ASSIGNMENT ( #115, #196, ( #25 ) ) ;
#50 = VERTEX_POINT ( 'NONE', #87 ) ;
#51 = ORIENTED_EDGE ( 'NONE', *, *, #16, .F. ) ;
#52 = APPROVAL_ROLE ( '' ) ;
#53 = FACE_BOUND ( 'NONE', #17, .T. ) ;
#54 = DIRECTION ( 'NONE',  ( -4.275831445896958607E-31, -1.000000000000000000, -1.224646799147353207E-16 ) ) ;
#55 = EDGE_CURVE ( 'NONE', #180, #180, #99, .T. ) ;
#56 = ORIENTED_EDGE ( 'NONE', *, *, #55, .T. ) ;
#57 = APPROVAL_STATUS ( 'not_yet_approved' ) ;
#58 = ADVANCED_FACE ( 'NONE', ( #88 ), #69, .F. ) ;
#59 = CC_DESIGN_PERSON_AND_ORGANIZATION_ASSIGNMENT ( #131, #172, ( #122 ) ) ;
#60 = CC_DESIGN_SECURITY_CLASSIFICATION ( #122, ( #135 ) ) ;
#61 = CARTESIAN_POINT ( 'NONE',  ( 1.731774744066194397E-13, 1.999999999999995337, 49.60000000000000853 ) ) ;
#62 = DESIGN_CONTEXT ( 'detailed design', #46, 'design' ) ;
#63 = DIRECTION ( 'NONE',  ( 1.000000000000000000, 0.0000000000000000000, 0.0000000000000000000 ) ) ;
#64 = DIRECTION ( 'NONE',  ( 4.275831445896957731E-31, 1.000000000000000000, 1.224646799147353207E-16 ) ) ;
#65 = FACE_BOUND ( 'NONE', #140, .T. ) ;
#66 = CC_DESIGN_APPROVAL ( #132, ( #135 ) ) ;
#67 = CARTESIAN_POINT ( 'NONE',  ( 6.284666409917601385E-15, -1.951563910473900093E-16, 1.799999999999988942 ) ) ;
#68 = CALENDAR_DATE ( 2021, 24, 11 ) ;
#69 = PLANE ( 'NONE',  #134 ) ;
#70 = CLOSED_SHELL ( 'NONE', ( #188, #121, #111 ) ) ;
#71 = DIRECTION ( 'NONE',  ( -4.275831445896958607E-31, -1.000000000000000000, -1.224646799147353207E-16 ) ) ;
#72 = AXIS2_PLACEMENT_3D ( 'NONE', #144, #116, #10 ) ;
#73 = AXIS2_PLACEMENT_3D ( 'NONE', #203, #123, #198 ) ;
#74 = FACE_OUTER_BOUND ( 'NONE', #26, .T. ) ;
#75 = DIRECTION ( 'NONE',  ( 4.275831445896958607E-31, 1.000000000000000000, 1.224646799147353207E-16 ) ) ;
#76 = AXIS2_PLACEMENT_3D ( 'NONE', #130, #152, #3 ) ;
#77 = ORIENTED_EDGE ( 'NONE', *, *, #55, .F. ) ;
#78 = EDGE_LOOP ( 'NONE', ( #56 ) ) ;
#79 = APPLICATION_CONTEXT ( 'configuration controlled 3d designs of mechanical parts and assemblies' ) ;
#80 = ORIENTED_EDGE ( 'NONE', *, *, #110, .F. ) ;
#81 = CARTESIAN_POINT ( 'NONE',  ( 1.745740669421566678E-13, -6.123233995736766085E-15, 50.00000000000000000 ) ) ;
#82 = DATE_AND_TIME ( #43, #194 ) ;
#83 = CIRCLE ( 'NONE', #76, 1.999999999999995781 ) ;
#84 = ADVANCED_FACE ( 'NONE', ( #13, #65 ), #176, .T. ) ;
#85 =( NAMED_UNIT ( * ) SI_UNIT ( $, .STERADIAN. ) SOLID_ANGLE_UNIT ( ) );
#86 = DATE_AND_TIME ( #68, #20 ) ;
#87 = CARTESIAN_POINT ( 'NONE',  ( 1.745740669421566678E-13, 1.599999999999994982, 50.00000000000000000 ) ) ;
#88 = FACE_OUTER_BOUND ( 'NONE', #38, .T. ) ;
#89 = FACE_OUTER_BOUND ( 'NONE', #186, .T. ) ;
#90 = CC_DESIGN_PERSON_AND_ORGANIZATION_ASSIGNMENT ( #129, #19, ( #135 ) ) ;
#91 = EDGE_LOOP ( 'NONE', ( #105 ) ) ;
#92 = PRODUCT ( '956863', '956863', '', ( #118 ) ) ;
#93 = MANIFOLD_SOLID_BREP ( 'Corps-Déplacer/Copier2[1]', #45 ) ;
#94 = APPROVAL_DATE_TIME ( #86, #132 ) ;
#95 = CARTESIAN_POINT ( 'NONE',  ( -8.551662891793917432E-32, 2.999519565323715558E-33, -2.449293598294706538E-17 ) ) ;
#96 = MANIFOLD_SOLID_BREP ( 'Corps-Déplacer/Copier2[2]', #70 ) ;
#97 = AXIS2_PLACEMENT_3D ( 'NONE', #95, #173, #71 ) ;
#98 = UNCERTAINTY_MEASURE_WITH_UNIT (LENGTH_MEASURE( 1.000000000000000082E-05 ), #103, 'distance_accuracy_value', 'NONE');
#99 = CIRCLE ( 'NONE', #106, 0.2000000000000000111 ) ;
#100 = CARTESIAN_POINT ( 'NONE',  ( -4.275831445896958716E-32, 1.499759782661857779E-33, -1.224646799147353269E-17 ) ) ;
#101 = CARTESIAN_POINT ( 'NONE',  ( 6.284666409917601385E-15, -2.204364238465222017E-16, 1.799999999999988942 ) ) ;
#102 = APPROVAL_STATUS ( 'not_yet_approved' ) ;
#103 =( LENGTH_UNIT ( ) NAMED_UNIT ( * ) SI_UNIT ( .MILLI., .METRE. ) );
#104 = DIRECTION ( 'NONE',  ( -3.491481338843133355E-15, 1.224646799147353207E-16, -1.000000000000000000 ) ) ;
#105 = ORIENTED_EDGE ( 'NONE', *, *, #16, .T. ) ;
#106 = AXIS2_PLACEMENT_3D ( 'NONE', #197, #143, #33 ) ;
#107 = LOCAL_TIME ( 15, 55, 44.00000000000000000, #125 ) ;
#108 = PRODUCT_RELATED_PRODUCT_CATEGORY ( 'detail', '', ( #92 ) ) ;
#109 = AXIS2_PLACEMENT_3D ( 'NONE', #1, #104, #117 ) ;
#110 = EDGE_CURVE ( 'NONE', #120, #120, #14, .T. ) ;
#111 = ADVANCED_FACE ( 'NONE', ( #89 ), #15, .T. ) ;
#112 = APPROVAL_PERSON_ORGANIZATION ( #160, #179, #11 ) ;
#113 = CC_DESIGN_DATE_AND_TIME_ASSIGNMENT ( #24, #147, ( #25 ) ) ;
#114 = VERTEX_POINT ( 'NONE', #61 ) ;
#115 = PERSON_AND_ORGANIZATION ( #191, #157 ) ;
#116 = DIRECTION ( 'NONE',  ( 3.491481338843133355E-15, -1.224646799147353207E-16, 1.000000000000000000 ) ) ;
#117 = DIRECTION ( 'NONE',  ( 0.0000000000000000000, 1.000000000000000000, 0.0000000000000000000 ) ) ;
#118 = MECHANICAL_CONTEXT ( 'NONE', #79, 'mechanical' ) ;
#119 = AXIS2_PLACEMENT_3D ( 'NONE', #67, #200, #54 ) ;
#120 = VERTEX_POINT ( 'NONE', #37 ) ;
#121 = ADVANCED_FACE ( 'NONE', ( #41, #53 ), #187, .T. ) ;
#122 = SECURITY_CLASSIFICATION ( '', '', #4 ) ;
#123 = DIRECTION ( 'NONE',  ( -3.491481338843133355E-15, 1.224646799147353207E-16, -1.000000000000000000 ) ) ;
#124 = CARTESIAN_POINT ( 'NONE',  ( 0.0000000000000000000, 0.0000000000000000000, 0.0000000000000000000 ) ) ;
#125 = COORDINATED_UNIVERSAL_TIME_OFFSET ( 1, 0, .AHEAD. ) ;
#126 = FACE_OUTER_BOUND ( 'NONE', #78, .T. ) ;
#127 = ORIENTED_EDGE ( 'NONE', *, *, #136, .T. ) ;
#128 = EDGE_LOOP ( 'NONE', ( #182 ) ) ;
#129 = PERSON_AND_ORGANIZATION ( #191, #157 ) ;
#130 = CARTESIAN_POINT ( 'NONE',  ( 6.284666409917601385E-15, -2.204364238465222017E-16, 1.799999999999988942 ) ) ;
#131 = PERSON_AND_ORGANIZATION ( #191, #157 ) ;
#132 = APPROVAL ( #102, 'UNSPECIFIED' ) ;
#133 = DATE_AND_TIME ( #29, #177 ) ;
#134 = AXIS2_PLACEMENT_3D ( 'NONE', #162, #23, #75 ) ;
#135 = PRODUCT_DEFINITION_FORMATION_WITH_SPECIFIED_SOURCE ( 'ANY', '', #92, .NOT_KNOWN. ) ;
#136 = EDGE_CURVE ( 'NONE', #158, #158, #83, .T. ) ;
#137 = CALENDAR_DATE ( 2021, 24, 11 ) ;
#138 = PLANE ( 'NONE',  #39 ) ;
#139 = APPLICATION_PROTOCOL_DEFINITION ( 'international standard', 'config_control_design', 1994, #46 ) ;
#140 = EDGE_LOOP ( 'NONE', ( #175 ) ) ;
#141 = EDGE_CURVE ( 'NONE', #50, #50, #47, .T. ) ;
#142 = CC_DESIGN_DATE_AND_TIME_ASSIGNMENT ( #82, #150, ( #122 ) ) ;
#143 = DIRECTION ( 'NONE',  ( -3.491481338843133355E-15, 1.224646799147353207E-16, -1.000000000000000000 ) ) ;
#144 = CARTESIAN_POINT ( 'NONE',  ( 6.284666409917601385E-15, -1.951563910473900093E-16, 1.799999999999988942 ) ) ;
#145 = AXIS2_PLACEMENT_3D ( 'NONE', #22, #166, #63 ) ;
#146 = DIRECTION ( 'NONE',  ( -3.491481338843133355E-15, 1.224646799147353207E-16, -1.000000000000000000 ) ) ;
#147 = DATE_TIME_ROLE ( 'creation_date' ) ;
#148 = DIRECTION ( 'NONE',  ( 0.0000000000000000000, 1.000000000000000000, 0.0000000000000000000 ) ) ;
#149 = ORIENTED_EDGE ( 'NONE', *, *, #136, .F. ) ;
#150 = DATE_TIME_ROLE ( 'classification_date' ) ;
#151 = CC_DESIGN_APPROVAL ( #156, ( #122 ) ) ;
#152 = DIRECTION ( 'NONE',  ( -3.491481338843133355E-15, 1.224646799147353207E-16, -1.000000000000000000 ) ) ;
#153 = PERSON_AND_ORGANIZATION_ROLE ( 'creator' ) ;
#154 = APPROVAL_DATE_TIME ( #133, #156 ) ;
#155 = LOCAL_TIME ( 15, 55, 44.00000000000000000, #195 ) ;
#156 = APPROVAL ( #57, 'UNSPECIFIED' ) ;
#157 = ORGANIZATION ( 'UNSPECIFIED', 'UNSPECIFIED', '' ) ;
#158 = VERTEX_POINT ( 'NONE', #202 ) ;
#159 = CC_DESIGN_PERSON_AND_ORGANIZATION_ASSIGNMENT ( #42, #153, ( #135 ) ) ;
#160 = PERSON_AND_ORGANIZATION ( #191, #157 ) ;
#161 =( NAMED_UNIT ( * ) PLANE_ANGLE_UNIT ( ) SI_UNIT ( $, .RADIAN. ) );
#162 = CARTESIAN_POINT ( 'NONE',  ( 1.745740669421566678E-13, 1.199807826129477876E-32, 50.00000000000000000 ) ) ;
#163 = APPROVAL_DATE_TIME ( #181, #179 ) ;
#164 = PLANE ( 'NONE',  #72 ) ;
#165 = EDGE_LOOP ( 'NONE', ( #149 ) ) ;
#166 = DIRECTION ( 'NONE',  ( 0.0000000000000000000, 0.0000000000000000000, 1.000000000000000000 ) ) ;
#167 = AXIS2_PLACEMENT_3D ( 'NONE', #81, #18, #148 ) ;
#168 = APPROVAL_PERSON_ORGANIZATION ( #2, #156, #174 ) ;
#169 = PRODUCT_DEFINITION_SHAPE ( 'NONE', 'NONE',  #25 ) ;
#170 = EDGE_LOOP ( 'NONE', ( #51 ) ) ;
#171 = ADVANCED_BREP_SHAPE_REPRESENTATION ( '956863', ( #93, #96, #145 ), #190 ) ;
#172 = PERSON_AND_ORGANIZATION_ROLE ( 'classification_officer' ) ;
#173 = DIRECTION ( 'NONE',  ( 3.491481338843133355E-15, -1.224646799147353207E-16, 1.000000000000000000 ) ) ;
#174 = APPROVAL_ROLE ( '' ) ;
#175 = ORIENTED_EDGE ( 'NONE', *, *, #141, .T. ) ;
#176 = CONICAL_SURFACE ( 'NONE', #73, 1.600000000000001199, 0.7853981633974516097 ) ;
#177 = LOCAL_TIME ( 15, 55, 44.00000000000000000, #44 ) ;
#178 = ADVANCED_FACE ( 'NONE', ( #74 ), #164, .F. ) ;
#179 = APPROVAL ( #183, 'UNSPECIFIED' ) ;
#180 = VERTEX_POINT ( 'NONE', #40 ) ;
#181 = DATE_AND_TIME ( #137, #107 ) ;
#182 = ORIENTED_EDGE ( 'NONE', *, *, #110, .T. ) ;
#183 = APPROVAL_STATUS ( 'not_yet_approved' ) ;
#184 = DIRECTION ( 'NONE',  ( -3.491481338843133355E-15, 1.224646799147353207E-16, -1.000000000000000000 ) ) ;
#185 = DIRECTION ( 'NONE',  ( -3.491481338843133355E-15, 1.224646799147353207E-16, -1.000000000000000000 ) ) ;
#186 = EDGE_LOOP ( 'NONE', ( #80 ) ) ;
#187 = CONICAL_SURFACE ( 'NONE', #97, 0.2000000000000000111, 0.7853981633974501664 ) ;
#188 = ADVANCED_FACE ( 'NONE', ( #126 ), #138, .T. ) ;
#189 = DIRECTION ( 'NONE',  ( 4.275831445896958607E-31, 1.000000000000000000, 1.224646799147353207E-16 ) ) ;
#190 =( GEOMETRIC_REPRESENTATION_CONTEXT ( 3 ) GLOBAL_UNCERTAINTY_ASSIGNED_CONTEXT ( ( #98 ) ) GLOBAL_UNIT_ASSIGNED_CONTEXT ( ( #103, #161, #85 ) ) REPRESENTATION_CONTEXT ( 'NONE', 'WORKASPACE' ) );
#191 = PERSON ( 'UNSPECIFIED', 'UNSPECIFIED', 'UNSPECIFIED', ('UNSPECIFIED'), ('UNSPECIFIED'), ('UNSPECIFIED') ) ;
#192 = FACE_OUTER_BOUND ( 'NONE', #165, .T. ) ;
#193 = COORDINATED_UNIVERSAL_TIME_OFFSET ( 1, 0, .AHEAD. ) ;
#194 = LOCAL_TIME ( 15, 55, 44.00000000000000000, #193 ) ;
#195 = COORDINATED_UNIVERSAL_TIME_OFFSET ( 1, 0, .AHEAD. ) ;
#196 = PERSON_AND_ORGANIZATION_ROLE ( 'creator' ) ;
#197 = CARTESIAN_POINT ( 'NONE',  ( -8.551662891793917432E-32, 2.999519565323715558E-33, -2.449293598294706538E-17 ) ) ;
#198 = DIRECTION ( 'NONE',  ( 0.0000000000000000000, 1.000000000000000000, 0.0000000000000000000 ) ) ;
#199 = PERSON_AND_ORGANIZATION ( #191, #157 ) ;
#200 = DIRECTION ( 'NONE',  ( 3.491481338843133355E-15, -1.224646799147353207E-16, 1.000000000000000000 ) ) ;
#201 = CC_DESIGN_PERSON_AND_ORGANIZATION_ASSIGNMENT ( #9, #32, ( #92 ) ) ;
#202 = CARTESIAN_POINT ( 'NONE',  ( 6.284666409917602174E-15, 1.999999999999995337, 1.799999999999989164 ) ) ;
#203 = CARTESIAN_POINT ( 'NONE',  ( 1.745740669421566678E-13, -6.123233995736766085E-15, 50.00000000000000000 ) ) ;
ENDSEC;
END-ISO-10303-21;
