ISO-10303-21;
HEADER;
FILE_DESCRIPTION (( 'STEP AP203' ),
    '1' );
FILE_NAME ('956862.step',
    '2023-02-16T09:47:36',
    ( '' ),
    ( '' ),
    'SwSTEP 2.0',
    'SolidWorks 2019',
    '' );
FILE_SCHEMA (( 'CONFIG_CONTROL_DESIGN' ));
ENDSEC;

DATA;
#1 = ORIENTED_EDGE ( 'NONE', *, *, #123, .F. ) ;
#2 = CYLINDRICAL_SURFACE ( 'NONE', #46, 1.499999999999994227 ) ;
#3 = PRODUCT_DEFINITION ( 'UNKNOWN', '', #202, #185 ) ;
#4 = CARTESIAN_POINT ( 'NONE',  ( -1.349999999999987432, 1.124819836996387048E-32, 0.000000000000000000 ) ) ;
#5 = CARTESIAN_POINT ( 'NONE',  ( -1.349999999999987432, 1.124819836996387048E-32, 0.000000000000000000 ) ) ;
#6 = VERTEX_POINT ( 'NONE', #190 ) ;
#7 = COORDINATED_UNIVERSAL_TIME_OFFSET ( 1, 0, .AHEAD. ) ;
#8 = APPROVAL_STATUS ( 'not_yet_approved' ) ;
#9 = SECURITY_CLASSIFICATION_LEVEL ( 'unclassified' ) ;
#10 = EDGE_LOOP ( 'NONE', ( #201 ) ) ;
#11 = AXIS2_PLACEMENT_3D ( 'NONE', #5, #148, #34 ) ;
#12 = DIRECTION ( 'NONE',  ( -1.000000000000000000, -1.224646799147353207E-16, 0.000000000000000000 ) ) ;
#13 = PRODUCT_DEFINITION_SHAPE ( 'NONE', 'NONE',  #3 ) ;
#14 =( NAMED_UNIT ( * ) SI_UNIT ( $, .STERADIAN. ) SOLID_ANGLE_UNIT ( ) );
#15 = ADVANCED_FACE ( 'NONE', ( #144, #171 ), #66, .T. ) ;
#16 = DIRECTION ( 'NONE',  ( 1.000000000000000000, 1.224646799147353207E-16, -0.000000000000000000 ) ) ;
#17 = CIRCLE ( 'NONE', #153, 0.1499999999999999667 ) ;
#18 = DIRECTION ( 'NONE',  ( 0.000000000000000000, 1.000000000000000000, 0.000000000000000000 ) ) ;
#19 = DIRECTION ( 'NONE',  ( 1.000000000000000000, 1.224646799147353207E-16, -0.000000000000000000 ) ) ;
#20 = CIRCLE ( 'NONE', #143, 1.499999999999992006 ) ;
#21 =( NAMED_UNIT ( * ) PLANE_ANGLE_UNIT ( ) SI_UNIT ( $, .RADIAN. ) );
#22 = DIRECTION ( 'NONE',  ( 0.000000000000000000, 0.000000000000000000, 1.000000000000000000 ) ) ;
#23 = APPROVAL_PERSON_ORGANIZATION ( #74, #87, #198 ) ;
#24 = PERSON_AND_ORGANIZATION ( #65, #181 ) ;
#25 = CC_DESIGN_PERSON_AND_ORGANIZATION_ASSIGNMENT ( #42, #166, ( #202 ) ) ;
#26 = PERSON_AND_ORGANIZATION ( #65, #181 ) ;
#27 = ADVANCED_BREP_SHAPE_REPRESENTATION ( '956862', ( #54, #122, #48 ), #61 ) ;
#28 = PERSON_AND_ORGANIZATION ( #65, #181 ) ;
#29 = DATE_AND_TIME ( #199, #62 ) ;
#30 = FACE_BOUND ( 'NONE', #33, .T. ) ;
#31 = PRODUCT ( '956862', '956862', '', ( #44 ) ) ;
#32 = LOCAL_TIME ( 10, 47, 36.00000000000000000, #7 ) ;
#33 = EDGE_LOOP ( 'NONE', ( #1 ) ) ;
#34 = DIRECTION ( 'NONE',  ( 1.224646799147353207E-16, -1.000000000000000000, 0.000000000000000000 ) ) ;
#35 = CIRCLE ( 'NONE', #70, 1.199999999999996403 ) ;
#36 = DIRECTION ( 'NONE',  ( 0.000000000000000000, 1.000000000000000000, 0.000000000000000000 ) ) ;
#37 = AXIS2_PLACEMENT_3D ( 'NONE', #155, #12, #84 ) ;
#38 = FACE_OUTER_BOUND ( 'NONE', #10, .T. ) ;
#39 = CARTESIAN_POINT ( 'NONE',  ( 1.836970198721029441E-17, 2.249639673992785728E-33, 0.000000000000000000 ) ) ;
#40 = APPROVAL_PERSON_ORGANIZATION ( #180, #41, #152 ) ;
#41 = APPROVAL ( #169, 'UNSPECIFIED' ) ;
#42 = PERSON_AND_ORGANIZATION ( #65, #181 ) ;
#43 = PERSON_AND_ORGANIZATION ( #65, #181 ) ;
#44 = MECHANICAL_CONTEXT ( 'NONE', #81, 'mechanical' ) ;
#45 = DIRECTION ( 'NONE',  ( 1.000000000000000000, 1.224646799147353207E-16, -0.000000000000000000 ) ) ;
#46 = AXIS2_PLACEMENT_3D ( 'NONE', #131, #16, #119 ) ;
#47 = CARTESIAN_POINT ( 'NONE',  ( -1.349999999999987210, -1.653273178848911336E-16, 0.000000000000000000 ) ) ;
#48 = AXIS2_PLACEMENT_3D ( 'NONE', #197, #22, #196 ) ;
#49 = EDGE_CURVE ( 'NONE', #118, #118, #168, .T. ) ;
#50 = UNCERTAINTY_MEASURE_WITH_UNIT (LENGTH_MEASURE( 1.000000000000000082E-05 ), #133, 'distance_accuracy_value', 'NONE');
#51 = CARTESIAN_POINT ( 'NONE',  ( -38.00000000000000000, -4.653657836759941941E-15, 0.000000000000000000 ) ) ;
#52 = CARTESIAN_POINT ( 'NONE',  ( -1.349999999999987210, -1.653273178848911336E-16, 0.000000000000000000 ) ) ;
#53 = DIRECTION ( 'NONE',  ( -1.224646799147353207E-16, 1.000000000000000000, 0.000000000000000000 ) ) ;
#54 = MANIFOLD_SOLID_BREP ( 'Révolution1', #104 ) ;
#55 = FACE_OUTER_BOUND ( 'NONE', #128, .T. ) ;
#56 = AXIS2_PLACEMENT_3D ( 'NONE', #72, #19, #158 ) ;
#57 = ADVANCED_FACE ( 'NONE', ( #156, #30 ), #86, .T. ) ;
#58 = APPROVAL_ROLE ( '' ) ;
#59 = DATE_AND_TIME ( #76, #124 ) ;
#60 = APPROVAL_DATE_TIME ( #29, #87 ) ;
#61 =( GEOMETRIC_REPRESENTATION_CONTEXT ( 3 ) GLOBAL_UNCERTAINTY_ASSIGNED_CONTEXT ( ( #50 ) ) GLOBAL_UNIT_ASSIGNED_CONTEXT ( ( #133, #21, #14 ) ) REPRESENTATION_CONTEXT ( 'NONE', 'WORKASPACE' ) );
#62 = LOCAL_TIME ( 10, 47, 36.00000000000000000, #110 ) ;
#63 = EDGE_LOOP ( 'NONE', ( #203 ) ) ;
#64 = ADVANCED_FACE ( 'NONE', ( #85 ), #172, .T. ) ;
#65 = PERSON ( 'UNSPECIFIED', 'UNSPECIFIED', 'UNSPECIFIED', ('UNSPECIFIED'), ('UNSPECIFIED'), ('UNSPECIFIED') ) ;
#66 = CONICAL_SURFACE ( 'NONE', #159, 1.199999999999996403, 0.7853981633974453924 ) ;
#67 = ORIENTED_EDGE ( 'NONE', *, *, #123, .T. ) ;
#68 = DIRECTION ( 'NONE',  ( -1.000000000000000000, -1.224646799147353207E-16, 0.000000000000000000 ) ) ;
#69 = CARTESIAN_POINT ( 'NONE',  ( -38.00000000000000000, 8.998558695971051224E-33, 0.000000000000000000 ) ) ;
#70 = AXIS2_PLACEMENT_3D ( 'NONE', #194, #191, #36 ) ;
#71 = VERTEX_POINT ( 'NONE', #160 ) ;
#72 = CARTESIAN_POINT ( 'NONE',  ( 9.184850993605147205E-18, 1.124819836996392864E-33, 0.000000000000000000 ) ) ;
#73 = CC_DESIGN_DATE_AND_TIME_ASSIGNMENT ( #78, #97, ( #140 ) ) ;
#74 = PERSON_AND_ORGANIZATION ( #65, #181 ) ;
#75 = CIRCLE ( 'NONE', #101, 1.499999999999996447 ) ;
#76 = CALENDAR_DATE ( 2023, 16, 2 ) ;
#77 = AXIS2_PLACEMENT_3D ( 'NONE', #47, #45, #170 ) ;
#78 = DATE_AND_TIME ( #183, #32 ) ;
#79 = DATE_AND_TIME ( #109, #173 ) ;
#80 = APPROVAL_STATUS ( 'not_yet_approved' ) ;
#81 = APPLICATION_CONTEXT ( 'configuration controlled 3d designs of mechanical parts and assemblies' ) ;
#82 = EDGE_LOOP ( 'NONE', ( #88 ) ) ;
#83 = CC_DESIGN_PERSON_AND_ORGANIZATION_ASSIGNMENT ( #26, #182, ( #3 ) ) ;
#84 = DIRECTION ( 'NONE',  ( 1.224646799147353207E-16, -1.000000000000000000, 0.000000000000000000 ) ) ;
#85 = FACE_OUTER_BOUND ( 'NONE', #187, .T. ) ;
#86 = CONICAL_SURFACE ( 'NONE', #37, 0.1499999999999999667, 0.7853981633974500554 ) ;
#87 = APPROVAL ( #80, 'UNSPECIFIED' ) ;
#88 = ORIENTED_EDGE ( 'NONE', *, *, #163, .T. ) ;
#89 = DIRECTION ( 'NONE',  ( -1.445602896647347052E-16, 1.000000000000000000, 0.000000000000000000 ) ) ;
#90 = DIRECTION ( 'NONE',  ( 1.000000000000000000, 1.224646799147353207E-16, -0.000000000000000000 ) ) ;
#91 = CARTESIAN_POINT ( 'NONE',  ( -1.349999999999987432, 1.499999999999991784, 0.000000000000000000 ) ) ;
#92 = PERSON_AND_ORGANIZATION ( #65, #181 ) ;
#93 = DATE_AND_TIME ( #108, #94 ) ;
#94 = LOCAL_TIME ( 10, 47, 36.00000000000000000, #137 ) ;
#95 = PRODUCT_RELATED_PRODUCT_CATEGORY ( 'detail', '', ( #31 ) ) ;
#96 = PERSON_AND_ORGANIZATION_ROLE ( 'classification_officer' ) ;
#97 = DATE_TIME_ROLE ( 'classification_date' ) ;
#98 = APPROVAL ( #8, 'UNSPECIFIED' ) ;
#99 = EDGE_LOOP ( 'NONE', ( #145 ) ) ;
#100 = EDGE_LOOP ( 'NONE', ( #141 ) ) ;
#101 = AXIS2_PLACEMENT_3D ( 'NONE', #147, #176, #18 ) ;
#102 = CC_DESIGN_PERSON_AND_ORGANIZATION_ASSIGNMENT ( #43, #138, ( #202 ) ) ;
#103 = FACE_OUTER_BOUND ( 'NONE', #99, .T. ) ;
#104 = CLOSED_SHELL ( 'NONE', ( #129, #116, #15, #135 ) ) ;
#105 = CARTESIAN_POINT ( 'NONE',  ( 0.000000000000000000, 0.1499999999999999667, 0.000000000000000000 ) ) ;
#106 = FACE_OUTER_BOUND ( 'NONE', #157, .T. ) ;
#107 = FACE_OUTER_BOUND ( 'NONE', #82, .T. ) ;
#108 = CALENDAR_DATE ( 2023, 16, 2 ) ;
#109 = CALENDAR_DATE ( 2023, 16, 2 ) ;
#110 = COORDINATED_UNIVERSAL_TIME_OFFSET ( 1, 0, .AHEAD. ) ;
#111 = COORDINATED_UNIVERSAL_TIME_OFFSET ( 1, 0, .AHEAD. ) ;
#112 = CC_DESIGN_DATE_AND_TIME_ASSIGNMENT ( #79, #136, ( #3 ) ) ;
#113 = ORIENTED_EDGE ( 'NONE', *, *, #146, .T. ) ;
#114 = ORIENTED_EDGE ( 'NONE', *, *, #178, .F. ) ;
#115 = ORIENTED_EDGE ( 'NONE', *, *, #49, .T. ) ;
#116 = ADVANCED_FACE ( 'NONE', ( #103, #107 ), #2, .T. ) ;
#117 = DIRECTION ( 'NONE',  ( 1.224646799147353207E-16, -1.000000000000000000, 0.000000000000000000 ) ) ;
#118 = VERTEX_POINT ( 'NONE', #177 ) ;
#119 = DIRECTION ( 'NONE',  ( -1.224646799147352961E-16, 1.000000000000000000, 0.000000000000000000 ) ) ;
#120 = APPROVAL_DATE_TIME ( #59, #41 ) ;
#121 = SHAPE_DEFINITION_REPRESENTATION ( #13, #27 ) ;
#122 = MANIFOLD_SOLID_BREP ( 'Révolution2', #186 ) ;
#123 = EDGE_CURVE ( 'NONE', #195, #195, #17, .T. ) ;
#124 = LOCAL_TIME ( 10, 47, 36.00000000000000000, #151 ) ;
#125 = DIRECTION ( 'NONE',  ( 1.000000000000000000, 1.224646799147353207E-16, -0.000000000000000000 ) ) ;
#126 = APPROVAL_PERSON_ORGANIZATION ( #24, #98, #58 ) ;
#127 = CC_DESIGN_APPROVAL ( #98, ( #3 ) ) ;
#128 = EDGE_LOOP ( 'NONE', ( #115 ) ) ;
#129 = ADVANCED_FACE ( 'NONE', ( #55 ), #161, .F. ) ;
#130 = DIRECTION ( 'NONE',  ( -1.224646799147353207E-16, 1.000000000000000000, 0.000000000000000000 ) ) ;
#131 = CARTESIAN_POINT ( 'NONE',  ( 0.000000000000000000, 0.000000000000000000, 0.000000000000000000 ) ) ;
#132 = PLANE ( 'NONE',  #139 ) ;
#133 =( LENGTH_UNIT ( ) NAMED_UNIT ( * ) SI_UNIT ( .MILLI., .METRE. ) );
#134 = VERTEX_POINT ( 'NONE', #91 ) ;
#135 = ADVANCED_FACE ( 'NONE', ( #106 ), #162, .F. ) ;
#136 = DATE_TIME_ROLE ( 'creation_date' ) ;
#137 = COORDINATED_UNIVERSAL_TIME_OFFSET ( 1, 0, .AHEAD. ) ;
#138 = PERSON_AND_ORGANIZATION_ROLE ( 'creator' ) ;
#139 = AXIS2_PLACEMENT_3D ( 'NONE', #4, #68, #117 ) ;
#140 = SECURITY_CLASSIFICATION ( '', '', #9 ) ;
#141 = ORIENTED_EDGE ( 'NONE', *, *, #163, .F. ) ;
#142 = DIRECTION ( 'NONE',  ( 0.000000000000000000, 1.000000000000000000, 0.000000000000000000 ) ) ;
#143 = AXIS2_PLACEMENT_3D ( 'NONE', #52, #193, #89 ) ;
#144 = FACE_OUTER_BOUND ( 'NONE', #100, .T. ) ;
#145 = ORIENTED_EDGE ( 'NONE', *, *, #49, .F. ) ;
#146 = EDGE_CURVE ( 'NONE', #134, #134, #20, .T. ) ;
#147 = CARTESIAN_POINT ( 'NONE',  ( -37.69999999999999574, -4.616918432785521081E-15, 0.000000000000000000 ) ) ;
#148 = DIRECTION ( 'NONE',  ( -1.000000000000000000, -1.224646799147353207E-16, 0.000000000000000000 ) ) ;
#149 = ADVANCED_FACE ( 'NONE', ( #38 ), #132, .T. ) ;
#150 = AXIS2_PLACEMENT_3D ( 'NONE', #69, #90, #130 ) ;
#151 = COORDINATED_UNIVERSAL_TIME_OFFSET ( 1, 0, .AHEAD. ) ;
#152 = APPROVAL_ROLE ( '' ) ;
#153 = AXIS2_PLACEMENT_3D ( 'NONE', #39, #179, #53 ) ;
#154 = APPROVAL_DATE_TIME ( #93, #98 ) ;
#155 = CARTESIAN_POINT ( 'NONE',  ( 1.836970198721029441E-17, 2.249639673992785728E-33, 0.000000000000000000 ) ) ;
#156 = FACE_OUTER_BOUND ( 'NONE', #188, .T. ) ;
#157 = EDGE_LOOP ( 'NONE', ( #114 ) ) ;
#158 = DIRECTION ( 'NONE',  ( -1.224646799147353207E-16, 1.000000000000000000, 0.000000000000000000 ) ) ;
#159 = AXIS2_PLACEMENT_3D ( 'NONE', #51, #125, #142 ) ;
#160 = CARTESIAN_POINT ( 'NONE',  ( -38.00000000000000000, 1.199999999999991962, 0.000000000000000000 ) ) ;
#161 = PLANE ( 'NONE',  #11 ) ;
#162 = PLANE ( 'NONE',  #150 ) ;
#163 = EDGE_CURVE ( 'NONE', #6, #6, #75, .T. ) ;
#164 = CC_DESIGN_APPROVAL ( #87, ( #140 ) ) ;
#165 = PERSON_AND_ORGANIZATION_ROLE ( 'design_owner' ) ;
#166 = PERSON_AND_ORGANIZATION_ROLE ( 'design_supplier' ) ;
#167 = APPLICATION_PROTOCOL_DEFINITION ( 'international standard', 'config_control_design', 1994, #200 ) ;
#168 = CIRCLE ( 'NONE', #77, 1.499999999999992006 ) ;
#169 = APPROVAL_STATUS ( 'not_yet_approved' ) ;
#170 = DIRECTION ( 'NONE',  ( -1.445602896647347052E-16, 1.000000000000000000, 0.000000000000000000 ) ) ;
#171 = FACE_BOUND ( 'NONE', #63, .T. ) ;
#172 = PLANE ( 'NONE',  #56 ) ;
#173 = LOCAL_TIME ( 10, 47, 36.00000000000000000, #111 ) ;
#174 = CC_DESIGN_SECURITY_CLASSIFICATION ( #140, ( #202 ) ) ;
#175 = APPLICATION_PROTOCOL_DEFINITION ( 'international standard', 'config_control_design', 1994, #81 ) ;
#176 = DIRECTION ( 'NONE',  ( 1.000000000000000000, 1.224646799147353207E-16, -0.000000000000000000 ) ) ;
#177 = CARTESIAN_POINT ( 'NONE',  ( -1.349999999999987432, 1.499999999999991784, 0.000000000000000000 ) ) ;
#178 = EDGE_CURVE ( 'NONE', #71, #71, #35, .T. ) ;
#179 = DIRECTION ( 'NONE',  ( 1.000000000000000000, 1.224646799147353207E-16, -0.000000000000000000 ) ) ;
#180 = PERSON_AND_ORGANIZATION ( #65, #181 ) ;
#181 = ORGANIZATION ( 'UNSPECIFIED', 'UNSPECIFIED', '' ) ;
#182 = PERSON_AND_ORGANIZATION_ROLE ( 'creator' ) ;
#183 = CALENDAR_DATE ( 2023, 16, 2 ) ;
#184 = CC_DESIGN_PERSON_AND_ORGANIZATION_ASSIGNMENT ( #92, #165, ( #31 ) ) ;
#185 = DESIGN_CONTEXT ( 'detailed design', #200, 'design' ) ;
#186 = CLOSED_SHELL ( 'NONE', ( #64, #57, #149 ) ) ;
#187 = EDGE_LOOP ( 'NONE', ( #67 ) ) ;
#188 = EDGE_LOOP ( 'NONE', ( #113 ) ) ;
#189 = CC_DESIGN_APPROVAL ( #41, ( #202 ) ) ;
#190 = CARTESIAN_POINT ( 'NONE',  ( -37.69999999999999574, 1.499999999999991784, 0.000000000000000000 ) ) ;
#191 = DIRECTION ( 'NONE',  ( 1.000000000000000000, 1.224646799147353207E-16, -0.000000000000000000 ) ) ;
#192 = CC_DESIGN_PERSON_AND_ORGANIZATION_ASSIGNMENT ( #28, #96, ( #140 ) ) ;
#193 = DIRECTION ( 'NONE',  ( 1.000000000000000000, 1.224646799147353207E-16, -0.000000000000000000 ) ) ;
#194 = CARTESIAN_POINT ( 'NONE',  ( -38.00000000000000000, -4.653657836759941941E-15, 0.000000000000000000 ) ) ;
#195 = VERTEX_POINT ( 'NONE', #105 ) ;
#196 = DIRECTION ( 'NONE',  ( 1.000000000000000000, 0.000000000000000000, 0.000000000000000000 ) ) ;
#197 = CARTESIAN_POINT ( 'NONE',  ( 0.000000000000000000, 0.000000000000000000, 0.000000000000000000 ) ) ;
#198 = APPROVAL_ROLE ( '' ) ;
#199 = CALENDAR_DATE ( 2023, 16, 2 ) ;
#200 = APPLICATION_CONTEXT ( 'configuration controlled 3d designs of mechanical parts and assemblies' ) ;
#201 = ORIENTED_EDGE ( 'NONE', *, *, #146, .F. ) ;
#202 = PRODUCT_DEFINITION_FORMATION_WITH_SPECIFIED_SOURCE ( 'ANY', '', #31, .NOT_KNOWN. ) ;
#203 = ORIENTED_EDGE ( 'NONE', *, *, #178, .T. ) ;
ENDSEC;
END-ISO-10303-21;
